  0
SECTION
  2
HEADER
  9
$ACADVER
  1
AC1021
  9
$ACADMAINTVER
 70
    25
  9
$DWGCODEPAGE
  3
ANSI_932
  9
$INSBASE
 10
0.0
 20
0.0
 30
0.0
  9
$EXTMIN
 10
21.69687882308179
 20
58.85692068429239
 30
0.0
  9
$EXTMAX
 10
1154.99281977627
 20
745.5532659409022
 30
0.0
  9
$LIMMIN
 10
0.0
 20
0.0
  9
$LIMMAX
 10
1189.0
 20
841.0
  9
$ORTHOMODE
 70
     0
  9
$REGENMODE
 70
     1
  9
$FILLMODE
 70
     1
  9
$QTEXTMODE
 70
     0
  9
$MIRRTEXT
 70
     1
  9
$LTSCALE
 40
0.25
  9
$ATTMODE
 70
     1
  9
$TEXTSIZE
 40
5.0
  9
$TRACEWID
 40
0.05
  9
$TEXTSTYLE
  7
Standard
  9
$CLAYER
  8
0
  9
$CELTYPE
  6
ByLayer
  9
$CECOLOR
 62
   256
  9
$CELTSCALE
 40
1.0
  9
$DISPSILH
 70
     0
  9
$DIMSCALE
 40
1.0
  9
$DIMASZ
 40
2.0
  9
$DIMEXO
 40
2.0
  9
$DIMDLI
 40
10.0
  9
$DIMRND
 40
0.0
  9
$DIMDLE
 40
0.0
  9
$DIMEXE
 40
1.5
  9
$DIMTP
 40
0.0
  9
$DIMTM
 40
0.0
  9
$DIMTXT
 40
4.0
  9
$DIMCEN
 40
0.09
  9
$DIMTSZ
 40
0.0
  9
$DIMTOL
 70
     0
  9
$DIMLIM
 70
     0
  9
$DIMTIH
 70
     0
  9
$DIMTOH
 70
     0
  9
$DIMSE1
 70
     0
  9
$DIMSE2
 70
     0
  9
$DIMTAD
 70
     3
  9
$DIMZIN
 70
     8
  9
$DIMBLK
  1

  9
$DIMASO
 70
     1
  9
$DIMSHO
 70
     1
  9
$DIMPOST
  1

  9
$DIMAPOST
  1

  9
$DIMALT
 70
     0
  9
$DIMALTD
 70
     2
  9
$DIMALTF
 40
25.4
  9
$DIMLFAC
 40
1.0
  9
$DIMTOFL
 70
     1
  9
$DIMTVP
 40
0.7
  9
$DIMTIX
 70
     0
  9
$DIMSOXD
 70
     0
  9
$DIMSAH
 70
     0
  9
$DIMBLK1
  1

  9
$DIMBLK2
  1

  9
$DIMSTYLE
  2
Standard
  9
$DIMCLRD
 70
     0
  9
$DIMCLRE
 70
     0
  9
$DIMCLRT
 70
     0
  9
$DIMTFAC
 40
0.5
  9
$DIMGAP
 40
0.09
  9
$DIMJUST
 70
     0
  9
$DIMSD1
 70
     0
  9
$DIMSD2
 70
     0
  9
$DIMTOLJ
 70
     1
  9
$DIMTZIN
 70
     8
  9
$DIMALTZ
 70
     0
  9
$DIMALTTZ
 70
     0
  9
$DIMUPT
 70
     1
  9
$DIMDEC
 70
     2
  9
$DIMTDEC
 70
     4
  9
$DIMALTU
 70
     2
  9
$DIMALTTD
 70
     2
  9
$DIMTXSTY
  7
Standard
  9
$DIMAUNIT
 70
     0
  9
$DIMADEC
 70
     0
  9
$DIMALTRND
 40
0.0
  9
$DIMAZIN
 70
     0
  9
$DIMDSEP
 70
    46
  9
$DIMATFIT
 70
     2
  9
$DIMFRAC
 70
     0
  9
$DIMLDRBLK
  1

  9
$DIMLUNIT
 70
     2
  9
$DIMLWD
 70
    -2
  9
$DIMLWE
 70
    -2
  9
$DIMTMOVE
 70
     2
  9
$DIMFXL
 40
1.0
  9
$DIMFXLON
 70
     0
  9
$DIMJOGANG
 40
0.7853981633974483
  9
$DIMTFILL
 70
     0
  9
$DIMTFILLCLR
 70
     0
  9
$DIMARCSYM
 70
     0
  9
$DIMLTYPE
  6

  9
$DIMLTEX1
  6

  9
$DIMLTEX2
  6

  9
$LUNITS
 70
     2
  9
$LUPREC
 70
     4
  9
$SKETCHINC
 40
0.1
  9
$FILLETRAD
 40
0.5
  9
$AUNITS
 70
     0
  9
$AUPREC
 70
     0
  9
$MENU
  1
.
  9
$ELEVATION
 40
0.0
  9
$PELEVATION
 40
0.0
  9
$THICKNESS
 40
0.0
  9
$LIMCHECK
 70
     0
  9
$CHAMFERA
 40
0.5
  9
$CHAMFERB
 40
0.5
  9
$CHAMFERC
 40
1.0
  9
$CHAMFERD
 40
0.0
  9
$SKPOLY
 70
     0
  9
$TDCREATE
 40
2456991.888425926
  9
$TDUCREATE
 40
2456991.513425926
  9
$TDUPDATE
 40
2456991.513435937
  9
$TDUUPDATE
 40
2456991.138435937
  9
$TDINDWG
 40
0.0000000116
  9
$TDUSRTIMER
 40
0.0000000116
  9
$USRTIMER
 70
     1
  9
$ANGBASE
 50
0.0
  9
$ANGDIR
 70
     0
  9
$PDMODE
 70
     0
  9
$PDSIZE
 40
0.0
  9
$PLINEWID
 40
0.0
  9
$SPLFRAME
 70
     0
  9
$SPLINETYPE
 70
     6
  9
$SPLINESEGS
 70
     8
  9
$HANDSEED
  5
2C7
  9
$SURFTAB1
 70
     6
  9
$SURFTAB2
 70
     6
  9
$SURFTYPE
 70
     6
  9
$SURFU
 70
     6
  9
$SURFV
 70
     6
  9
$UCSBASE
  2

  9
$UCSNAME
  2

  9
$UCSORG
 10
0.0
 20
0.0
 30
0.0
  9
$UCSXDIR
 10
1.0
 20
0.0
 30
0.0
  9
$UCSYDIR
 10
0.0
 20
1.0
 30
0.0
  9
$UCSORTHOREF
  2

  9
$UCSORTHOVIEW
 70
     0
  9
$UCSORGTOP
 10
0.0
 20
0.0
 30
0.0
  9
$UCSORGBOTTOM
 10
0.0
 20
0.0
 30
0.0
  9
$UCSORGLEFT
 10
0.0
 20
0.0
 30
0.0
  9
$UCSORGRIGHT
 10
0.0
 20
0.0
 30
0.0
  9
$UCSORGFRONT
 10
0.0
 20
0.0
 30
0.0
  9
$UCSORGBACK
 10
0.0
 20
0.0
 30
0.0
  9
$PUCSBASE
  2

  9
$PUCSNAME
  2

  9
$PUCSORG
 10
0.0
 20
0.0
 30
0.0
  9
$PUCSXDIR
 10
1.0
 20
0.0
 30
0.0
  9
$PUCSYDIR
 10
0.0
 20
1.0
 30
0.0
  9
$PUCSORTHOREF
  2

  9
$PUCSORTHOVIEW
 70
     0
  9
$PUCSORGTOP
 10
0.0
 20
0.0
 30
0.0
  9
$PUCSORGBOTTOM
 10
0.0
 20
0.0
 30
0.0
  9
$PUCSORGLEFT
 10
0.0
 20
0.0
 30
0.0
  9
$PUCSORGRIGHT
 10
0.0
 20
0.0
 30
0.0
  9
$PUCSORGFRONT
 10
0.0
 20
0.0
 30
0.0
  9
$PUCSORGBACK
 10
0.0
 20
0.0
 30
0.0
  9
$USERI1
 70
     0
  9
$USERI2
 70
     0
  9
$USERI3
 70
     0
  9
$USERI4
 70
     0
  9
$USERI5
 70
     0
  9
$USERR1
 40
0.0
  9
$USERR2
 40
0.0
  9
$USERR3
 40
0.0
  9
$USERR4
 40
0.0
  9
$USERR5
 40
0.0
  9
$WORLDVIEW
 70
     1
  9
$SHADEDGE
 70
     3
  9
$SHADEDIF
 70
    70
  9
$TILEMODE
 70
     1
  9
$MAXACTVP
 70
    64
  9
$PINSBASE
 10
0.0
 20
0.0
 30
0.0
  9
$PLIMCHECK
 70
     0
  9
$PEXTMIN
 10
0.0
 20
0.0
 30
0.0
  9
$PEXTMAX
 10
1189.0
 20
841.0
 30
0.0
  9
$PLIMMIN
 10
0.0
 20
0.0
  9
$PLIMMAX
 10
1189.0
 20
841.0
  9
$UNITMODE
 70
     0
  9
$VISRETAIN
 70
     1
  9
$PLINEGEN
 70
     0
  9
$PSLTSCALE
 70
     1
  9
$TREEDEPTH
 70
  3020
  9
$CMLSTYLE
  2
Standard
  9
$CMLJUST
 70
     0
  9
$CMLSCALE
 40
1.0
  9
$PROXYGRAPHICS
 70
     1
  9
$MEASUREMENT
 70
     1
  9
$CELWEIGHT
370
    -1
  9
$ENDCAPS
280
     0
  9
$JOINSTYLE
280
     0
  9
$LWDISPLAY
290
     0
  9
$INSUNITS
 70
     4
  9
$HYPERLINKBASE
  1

  9
$STYLESHEET
  1

  9
$XEDIT
290
     1
  9
$CEPSNTYPE
380
     0
  9
$PSTYLEMODE
290
     1
  9
$FINGERPRINTGUID
  2
{1D1FAA8F-B5D5-441E-922C-D05D4BE7E842}
  9
$VERSIONGUID
  2
{FAEB1C32-E019-11D5-929B-00C0DF256EC4}
  9
$EXTNAMES
290
     1
  9
$PSVPSCALE
 40
0.0
  9
$OLESTARTUP
290
     0
  9
$SORTENTS
280
   127
  9
$INDEXCTL
280
     0
  9
$HIDETEXT
280
     1
  9
$XCLIPFRAME
290
     0
  9
$HALOGAP
280
     0
  9
$OBSCOLOR
 70
   257
  9
$OBSLTYPE
280
     0
  9
$INTERSECTIONDISPLAY
280
     0
  9
$INTERSECTIONCOLOR
 70
   257
  9
$DIMASSOC
280
     1
  9
$PROJECTNAME
  1

  9
$CAMERADISPLAY
290
     0
  9
$LENSLENGTH
 40
50.0
  9
$CAMERAHEIGHT
 40
0.0
  9
$STEPSPERSEC
 40
2.0
  9
$STEPSIZE
 40
6.0
  9
$3DDWFPREC
 40
2.0
  9
$PSOLWIDTH
 40
0.25
  9
$PSOLHEIGHT
 40
4.0
  9
$LOFTANG1
 40
1.570796326794897
  9
$LOFTANG2
 40
1.570796326794897
  9
$LOFTMAG1
 40
0.0
  9
$LOFTMAG2
 40
0.0
  9
$LOFTPARAM
 70
     7
  9
$LOFTNORMALS
280
     1
  9
$LATITUDE
 40
37.795
  9
$LONGITUDE
 40
-122.394
  9
$NORTHDIRECTION
 40
0.0
  9
$TIMEZONE
 70
 -8000
  9
$LIGHTGLYPHDISPLAY
280
     1
  9
$TILEMODELIGHTSYNCH
280
     1
  9
$SOLIDHIST
280
     1
  9
$SHOWHIST
280
     1
  9
$DWFFRAME
280
     2
  9
$DGNFRAME
280
     2
  9
$REALWORLDSCALE
290
     1
  9
$INTERFERECOLOR
 62
   256
  9
$CSHADOW
280
     0
  9
$SHADOWPLANELOCATION
 40
0.0
  0
ENDSEC
  0
SECTION
  2
CLASSES
  0
CLASS
  1
ACDBDICTIONARYWDFLT
  2
AcDbDictionaryWithDefault
  3
ObjectDBX Classes
 90
        0
 91
        4
280
     0
281
     0
  0
CLASS
  1
VISUALSTYLE
  2
AcDbVisualStyle
  3
ObjectDBX Classes
 90
     4095
 91
        4
280
     0
281
     0
  0
CLASS
  1
MATERIAL
  2
AcDbMaterial
  3
ObjectDBX Classes
 90
     1153
 91
        4
280
     0
281
     0
  0
ENDSEC
  0
SECTION
  2
TABLES
  0
TABLE
  2
VPORT
  5
8
330
0
100
AcDbSymbolTable
 70
     1
  0
VPORT
  5
29
330
8
100
AcDbSymbolTableRecord
100
AcDbViewportTableRecord
  2
*Active
 70
     0
 10
0.0
 20
0.0
 11
1.0
 21
1.0
 12
10.42990654205607
 22
4.5
 13
0.0
 23
0.0
 14
0.5
 24
0.5
 15
0.5
 25
0.5
 16
0.0
 26
0.0
 36
1.0
 17
0.0
 27
0.0
 37
0.0
 40
9.0
 41
1.972972972850329
 42
50.0
 43
0.0
 44
0.0
 50
0.0
 51
0.0
 71
     0
 72
   100
 73
     1
 74
     3
 75
     0
 76
     0
 77
     0
 78
     0
281
     0
 65
     1
110
0.0
120
0.0
130
0.0
111
1.0
121
0.0
131
0.0
112
0.0
122
1.0
132
0.0
 79
     0
146
0.0
 60
     3
 61
     5
292
     1
282
     1
141
0.0
142
0.0
 63
   250
  0
ENDTAB
  0
TABLE
  2
LTYPE
  5
5
330
0
100
AcDbSymbolTable
 70
     9
  0
LTYPE
  5
14
330
5
100
AcDbSymbolTableRecord
100
AcDbLinetypeTableRecord
  2
ByBlock
 70
     0
  3

 72
    65
 73
     0
 40
0.0
  0
LTYPE
  5
15
330
5
100
AcDbSymbolTableRecord
100
AcDbLinetypeTableRecord
  2
ByLayer
 70
     0
  3

 72
    65
 73
     0
 40
0.0
  0
LTYPE
  5
16
330
5
100
AcDbSymbolTableRecord
100
AcDbLinetypeTableRecord
  2
Continuous
 70
     0
  3
Solid line
 72
    65
 73
     0
 40
0.0
  0
LTYPE
  5
8E
330
5
100
AcDbSymbolTableRecord
100
AcDbLinetypeTableRecord
  2
DOT
 70
     0
  3
DOT
 72
    65
 73
     2
 40
4.0
 49
6.0
 74
     0
 49
-2.0
 74
     0
  0
LTYPE
  5
8F
330
5
100
AcDbSymbolTableRecord
100
AcDbLinetypeTableRecord
  2
HIDDEN
 70
     0
  3
HIDDEN
 72
    65
 73
     2
 40
4.2
 49
8.4
 74
     0
 49
-4.2
 74
     0
  0
LTYPE
  5
90
330
5
100
AcDbSymbolTableRecord
100
AcDbLinetypeTableRecord
  2
DASHDOT
 70
     0
  3
DASHDOT
 72
    65
 73
     4
 40
14.5
 49
30.0
 74
     0
 49
-9.0
 74
     0
 49
2.5
 74
     0
 49
-9.0
 74
     0
  0
LTYPE
  5
91
330
5
100
AcDbSymbolTableRecord
100
AcDbLinetypeTableRecord
  2
PHANTOM
 70
     0
  3
PHANTOM
 72
    65
 73
     6
 40
12.0
 49
30.0
 74
     0
 49
-9.0
 74
     0
 49
2.5
 74
     0
 49
-5.0
 74
     0
 49
2.5
 74
     0
 49
-9.0
 74
     0
  0
LTYPE
  5
92
330
5
100
AcDbSymbolTableRecord
100
AcDbLinetypeTableRecord
  2
ACAD_ISO14W100
 70
     0
  3
ACAD_ISO14W100
 72
    65
 73
     8
 40
1.5
 49
12.0
 74
     0
 49
-3.0
 74
     0
 49
0.5
 74
     0
 49
-3.0
 74
     0
 49
0.5
 74
     0
 49
-3.0
 74
     0
 49
0.5
 74
     0
 49
-3.0
 74
     0
  0
LTYPE
  5
93
330
5
100
AcDbSymbolTableRecord
100
AcDbLinetypeTableRecord
  2
ACAD_ISO06W100
 70
     0
  3
ACAD_ISO06W100
 72
    65
 73
     8
 40
13.5
 49
24.0
 74
     0
 49
-3.0
 74
     0
 49
0.5
 74
     0
 49
-3.0
 74
     0
 49
0.5
 74
     0
 49
-3.0
 74
     0
 49
0.5
 74
     0
 49
-3.0
 74
     0
  0
LTYPE
  5
94
330
5
100
AcDbSymbolTableRecord
100
AcDbLinetypeTableRecord
  2
ACAD_ISO11W100
 70
     0
  3
ACAD_ISO11W100
 72
    65
 73
     6
 40
15.5
 49
12.0
 74
     0
 49
-3.0
 74
     0
 49
12.0
 74
     0
 49
-3.0
 74
     0
 49
0.5
 74
     0
 49
-3.0
 74
     0
  0
LTYPE
  5
95
330
5
100
AcDbSymbolTableRecord
100
AcDbLinetypeTableRecord
  2
ACAD_ISO13W100
 70
     0
  3
ACAD_ISO13W100
 72
    65
 73
     8
 40
13.0
 49
12.0
 74
     0
 49
-3.0
 74
     0
 49
12.0
 74
     0
 49
-3.0
 74
     0
 49
0.5
 74
     0
 49
-3.0
 74
     0
 49
0.5
 74
     0
 49
-3.0
 74
     0
  0
ENDTAB
  0
TABLE
  2
LAYER
  5
2
330
0
100
AcDbSymbolTable
 70
    22
  0
LAYER
  5
10
330
2
100
AcDbSymbolTableRecord
100
AcDbLayerTableRecord
  2
0
 70
     0
 62
     7
  6
Continuous
370
    -3
390
F
347
3E
  0
LAYER
  5
96
330
2
100
AcDbSymbolTableRecord
100
AcDbLayerTableRecord
  2
1
 70
     0
 62
     7
  6
Continuous
370
     9
390
F
347
3E
  0
LAYER
  5
97
330
2
100
AcDbSymbolTableRecord
100
AcDbLayerTableRecord
  2
2
 70
     0
 62
   134
  6
Continuous
370
     9
390
F
347
3E
  0
LAYER
  5
98
330
2
100
AcDbSymbolTableRecord
100
AcDbLayerTableRecord
  2
3
 70
     0
 62
   214
  6
Continuous
370
     9
390
F
347
3E
  0
LAYER
  5
99
330
2
100
AcDbSymbolTableRecord
100
AcDbLayerTableRecord
  2
4
 70
     0
 62
    54
  6
Continuous
370
     9
390
F
347
3E
  0
LAYER
  5
9A
330
2
100
AcDbSymbolTableRecord
100
AcDbLayerTableRecord
  2
5
 70
     0
 62
    94
  6
Continuous
370
     9
390
F
347
3E
  0
LAYER
  5
9B
330
2
100
AcDbSymbolTableRecord
100
AcDbLayerTableRecord
  2
6
 70
     0
 62
    14
  6
Continuous
370
     9
390
F
347
3E
  0
LAYER
  5
9C
330
2
100
AcDbSymbolTableRecord
100
AcDbLayerTableRecord
  2
7
 70
     0
 62
     4
  6
Continuous
370
     9
390
F
347
3E
  0
LAYER
  5
9D
330
2
100
AcDbSymbolTableRecord
100
AcDbLayerTableRecord
  2
8
 70
     0
 62
     6
  6
Continuous
370
     9
390
F
347
3E
  0
LAYER
  5
9E
330
2
100
AcDbSymbolTableRecord
100
AcDbLayerTableRecord
  2
9
 70
     0
 62
     2
  6
Continuous
370
     9
390
F
347
3E
  0
LAYER
  5
9F
330
2
100
AcDbSymbolTableRecord
100
AcDbLayerTableRecord
  2
10
 70
     0
 62
     3
  6
Continuous
370
     9
390
F
347
3E
  0
LAYER
  5
A0
330
2
100
AcDbSymbolTableRecord
100
AcDbLayerTableRecord
  2
11
 70
     0
 62
   251
  6
Continuous
370
     9
390
F
347
3E
  0
LAYER
  5
A1
330
2
100
AcDbSymbolTableRecord
100
AcDbLayerTableRecord
  2
12
 70
     0
 62
   136
  6
Continuous
370
     9
390
F
347
3E
  0
LAYER
  5
A2
330
2
100
AcDbSymbolTableRecord
100
AcDbLayerTableRecord
  2
13
 70
     0
 62
   216
  6
Continuous
370
     9
390
F
347
3E
  0
LAYER
  5
A3
330
2
100
AcDbSymbolTableRecord
100
AcDbLayerTableRecord
  2
14
 70
     0
 62
    56
  6
Continuous
370
     9
390
F
347
3E
  0
LAYER
  5
A4
330
2
100
AcDbSymbolTableRecord
100
AcDbLayerTableRecord
  2
15
 70
     0
 62
    96
  6
Continuous
370
     9
390
F
347
3E
  0
LAYER
  5
A5
330
2
100
AcDbSymbolTableRecord
100
AcDbLayerTableRecord
  2
16
 70
     0
 62
    16
  6
Continuous
370
     9
390
F
347
3E
  0
LAYER
  5
A6
330
2
100
AcDbSymbolTableRecord
100
AcDbLayerTableRecord
  2
17
 70
     0
 62
   132
  6
Continuous
370
     9
390
F
347
3E
  0
LAYER
  5
A7
330
2
100
AcDbSymbolTableRecord
100
AcDbLayerTableRecord
  2
18
 70
     0
 62
   212
  6
Continuous
370
     9
390
F
347
3E
  0
LAYER
  5
A8
330
2
100
AcDbSymbolTableRecord
100
AcDbLayerTableRecord
  2
19
 70
     0
 62
    52
  6
Continuous
370
     9
390
F
347
3E
  0
LAYER
  5
A9
330
2
100
AcDbSymbolTableRecord
100
AcDbLayerTableRecord
  2
20
 70
     0
 62
   250
  6
Continuous
370
     9
390
F
347
3E
  0
LAYER
  5
AA
330
2
100
AcDbSymbolTableRecord
100
AcDbLayerTableRecord
  2
128
 70
     0
 62
     7
  6
Continuous
370
     9
390
F
347
3E
  0
ENDTAB
  0
TABLE
  2
STYLE
  5
3
330
0
100
AcDbSymbolTable
 70
     2
  0
STYLE
  5
11
330
3
100
AcDbSymbolTableRecord
100
AcDbTextStyleTableRecord
  2
Standard
 70
     0
 40
0.0
 41
1.0
 50
0.0
 71
     0
 42
5.0
  3
txt
  4
bigfont
  0
STYLE
  5
41
330
3
100
AcDbSymbolTableRecord
100
AcDbTextStyleTableRecord
  2
T_STANDARD
 70
     4
 40
10.0
 41
1.0
 50
0.0
 71
     0
 42
10.0
  3
txt
  4
bigfont
  0
ENDTAB
  0
TABLE
  2
VIEW
  5
6
330
0
100
AcDbSymbolTable
 70
     0
  0
ENDTAB
  0
TABLE
  2
UCS
  5
7
330
0
100
AcDbSymbolTable
 70
     0
  0
ENDTAB
  0
TABLE
  2
APPID
  5
9
330
0
100
AcDbSymbolTable
 70
     2
  0
APPID
  5
12
330
9
100
AcDbSymbolTableRecord
100
AcDbRegAppTableRecord
  2
ACAD
 70
     0
  0
APPID
  5
40
330
9
100
AcDbSymbolTableRecord
100
AcDbRegAppTableRecord
  2
ODA
 70
     0
  0
ENDTAB
  0
TABLE
  2
DIMSTYLE
  5
A
330
0
100
AcDbSymbolTable
 70
     1
100
AcDbDimStyleTable
  0
DIMSTYLE
105
27
330
A
100
AcDbSymbolTableRecord
100
AcDbDimStyleTableRecord
  2
Standard
 70
     0
178
     0
340
11
  0
ENDTAB
  0
TABLE
  2
BLOCK_RECORD
  5
1
330
0
100
AcDbSymbolTable
 70
    16
  0
BLOCK_RECORD
  5
1F
330
1
100
AcDbSymbolTableRecord
100
AcDbBlockTableRecord
  2
*Model_Space
340
22
 70
     0
280
     1
281
     0
  0
BLOCK_RECORD
  5
1B
330
1
100
AcDbSymbolTableRecord
100
AcDbBlockTableRecord
  2
*Paper_Space
340
1E
 70
     0
280
     1
281
     0
  0
BLOCK_RECORD
  5
23
330
1
100
AcDbSymbolTableRecord
100
AcDbBlockTableRecord
  2
*Paper_Space0
340
26
 70
     0
280
     1
281
     0
  0
BLOCK_RECORD
  5
42
330
1
100
AcDbSymbolTableRecord
100
AcDbBlockTableRecord
  2
_ORIGIN
340
0
 70
     0
280
     1
281
     0
  0
BLOCK_RECORD
  5
47
330
1
100
AcDbSymbolTableRecord
100
AcDbBlockTableRecord
  2
_DOTBLANK
340
0
 70
     0
280
     1
281
     0
  0
BLOCK_RECORD
  5
4C
330
1
100
AcDbSymbolTableRecord
100
AcDbBlockTableRecord
  2
_DOT
340
0
 70
     0
280
     1
281
     0
  0
BLOCK_RECORD
  5
51
330
1
100
AcDbSymbolTableRecord
100
AcDbBlockTableRecord
  2
_OPEN
340
0
 70
     0
280
     1
281
     0
  0
BLOCK_RECORD
  5
57
330
1
100
AcDbSymbolTableRecord
100
AcDbBlockTableRecord
  2
_CLOSED
340
0
 70
     0
280
     1
281
     0
  0
BLOCK_RECORD
  5
5E
330
1
100
AcDbSymbolTableRecord
100
AcDbBlockTableRecord
  2
_CLOSEDBLANK
340
0
 70
     0
280
     1
281
     0
  0
BLOCK_RECORD
  5
64
330
1
100
AcDbSymbolTableRecord
100
AcDbBlockTableRecord
  2
_ARROWFILLED
340
0
 70
     0
280
     1
281
     0
  0
BLOCK_RECORD
  5
68
330
1
100
AcDbSymbolTableRecord
100
AcDbBlockTableRecord
  2
_BOXBLANK
340
0
 70
     0
280
     1
281
     0
  0
BLOCK_RECORD
  5
70
330
1
100
AcDbSymbolTableRecord
100
AcDbBlockTableRecord
  2
_BOXFILLED
340
0
 70
     0
280
     1
281
     0
  0
BLOCK_RECORD
  5
75
330
1
100
AcDbSymbolTableRecord
100
AcDbBlockTableRecord
  2
_INTEGRAL
340
0
 70
     0
280
     1
281
     0
  0
BLOCK_RECORD
  5
7A
330
1
100
AcDbSymbolTableRecord
100
AcDbBlockTableRecord
  2
_OBLIQUE
340
0
 70
     0
280
     1
281
     0
  0
BLOCK_RECORD
  5
7E
330
1
100
AcDbSymbolTableRecord
100
AcDbBlockTableRecord
  2
_NONE
340
0
 70
     0
280
     1
281
     0
  0
BLOCK_RECORD
  5
81
330
1
100
AcDbSymbolTableRecord
100
AcDbBlockTableRecord
  2
MARK_OPEN
340
0
 70
     0
280
     1
281
     0
  0
BLOCK_RECORD
  5
86
330
1
100
AcDbSymbolTableRecord
100
AcDbBlockTableRecord
  2
MARK_ORIGIN
340
0
 70
     0
280
     1
281
     0
  0
BLOCK_RECORD
  5
8A
330
1
100
AcDbSymbolTableRecord
100
AcDbBlockTableRecord
  2
MARK_DOT
340
0
 70
     0
280
     1
281
     0
  0
ENDTAB
  0
ENDSEC
  0
SECTION
  2
BLOCKS
  0
BLOCK
  5
20
330
1F
100
AcDbEntity
  8
0
100
AcDbBlockBegin
  2
*Model_Space
 70
     0
 10
0.0
 20
0.0
 30
0.0
  3
*Model_Space
  1

  0
ENDBLK
  5
21
330
1F
100
AcDbEntity
  8
0
100
AcDbBlockEnd
  0
BLOCK
  5
1C
330
1B
100
AcDbEntity
 67
     1
  8
0
100
AcDbBlockBegin
  2
*Paper_Space
 70
     0
 10
0.0
 20
0.0
 30
0.0
  3
*Paper_Space
  1

  0
ENDBLK
  5
1D
330
1B
100
AcDbEntity
 67
     1
  8
0
100
AcDbBlockEnd
  0
BLOCK
  5
24
330
23
100
AcDbEntity
  8
0
100
AcDbBlockBegin
  2
*Paper_Space0
 70
     0
 10
0.0
 20
0.0
 30
0.0
  3
*Paper_Space0
  1

  0
ENDBLK
  5
25
330
23
100
AcDbEntity
  8
0
100
AcDbBlockEnd
  0
BLOCK
  5
45
330
42
100
AcDbEntity
  8
0
100
AcDbBlockBegin
  2
_ORIGIN
 70
     0
 10
0.0
 20
0.0
 30
0.0
  3
_ORIGIN
  1

  0
CIRCLE
  5
43
330
42
100
AcDbEntity
  8
0
100
AcDbCircle
 10
0.0
 20
0.0
 30
0.0
 40
0.5
  0
LINE
  5
44
330
42
100
AcDbEntity
  8
0
100
AcDbLine
 10
0.0
 20
0.0
 30
0.0
 11
-1.0
 21
0.0
 31
0.0
  0
ENDBLK
  5
46
330
42
100
AcDbEntity
  8
0
100
AcDbBlockEnd
  0
BLOCK
  5
4A
330
47
100
AcDbEntity
  8
0
100
AcDbBlockBegin
  2
_DOTBLANK
 70
     0
 10
0.0
 20
0.0
 30
0.0
  3
_DOTBLANK
  1

  0
CIRCLE
  5
48
330
47
100
AcDbEntity
  8
0
100
AcDbCircle
 10
0.0
 20
0.0
 30
0.0
 40
0.5
  0
LINE
  5
49
330
47
100
AcDbEntity
  8
0
100
AcDbLine
 10
-0.5
 20
0.0
 30
0.0
 11
-1.0
 21
0.0
 31
0.0
  0
ENDBLK
  5
4B
330
47
100
AcDbEntity
  8
0
100
AcDbBlockEnd
  0
BLOCK
  5
4F
330
4C
100
AcDbEntity
  8
0
100
AcDbBlockBegin
  2
_DOT
 70
     0
 10
0.0
 20
0.0
 30
0.0
  3
_DOT
  1

  0
LWPOLYLINE
  5
4D
330
4C
100
AcDbEntity
  8
0
100
AcDbPolyline
 90
        2
 70
     1
 43
0.5
 10
-0.25
 20
0.0
 42
1.0
 10
0.25
 20
0.0
 42
1.0
  0
LINE
  5
4E
330
4C
100
AcDbEntity
  8
0
100
AcDbLine
 10
-0.5
 20
0.0
 30
0.0
 11
-1.0
 21
0.0
 31
0.0
  0
ENDBLK
  5
50
330
4C
100
AcDbEntity
  8
0
100
AcDbBlockEnd
  0
BLOCK
  5
55
330
51
100
AcDbEntity
  8
0
100
AcDbBlockBegin
  2
_OPEN
 70
     0
 10
0.0
 20
0.0
 30
0.0
  3
_OPEN
  1

  0
LINE
  5
52
330
51
100
AcDbEntity
  8
0
100
AcDbLine
 10
0.0
 20
0.0
 30
0.0
 11
-1.0
 21
0.1666666666666667
 31
0.0
  0
LINE
  5
53
330
51
100
AcDbEntity
  8
0
100
AcDbLine
 10
0.0
 20
0.0
 30
0.0
 11
-1.0
 21
-0.1666666666666667
 31
0.0
  0
LINE
  5
54
330
51
100
AcDbEntity
  8
0
100
AcDbLine
 10
0.0
 20
0.0
 30
0.0
 11
-1.0
 21
0.0
 31
0.0
  0
ENDBLK
  5
56
330
51
100
AcDbEntity
  8
0
100
AcDbBlockEnd
  0
BLOCK
  5
5C
330
57
100
AcDbEntity
  8
0
100
AcDbBlockBegin
  2
_CLOSED
 70
     0
 10
0.0
 20
0.0
 30
0.0
  3
_CLOSED
  1

  0
LINE
  5
58
330
57
100
AcDbEntity
  8
0
100
AcDbLine
 10
0.0
 20
0.0
 30
0.0
 11
-1.0
 21
0.1666666666666667
 31
0.0
  0
LINE
  5
59
330
57
100
AcDbEntity
  8
0
100
AcDbLine
 10
0.0
 20
0.0
 30
0.0
 11
-1.0
 21
-0.1666666666666667
 31
0.0
  0
LINE
  5
5A
330
57
100
AcDbEntity
  8
0
100
AcDbLine
 10
-1.0
 20
0.1666666666666667
 30
0.0
 11
-1.0
 21
-0.1666666666666667
 31
0.0
  0
LINE
  5
5B
330
57
100
AcDbEntity
  8
0
100
AcDbLine
 10
0.0
 20
0.0
 30
0.0
 11
-1.0
 21
0.0
 31
0.0
  0
ENDBLK
  5
5D
330
57
100
AcDbEntity
  8
0
100
AcDbBlockEnd
  0
BLOCK
  5
62
330
5E
100
AcDbEntity
  8
0
100
AcDbBlockBegin
  2
_CLOSEDBLANK
 70
     0
 10
0.0
 20
0.0
 30
0.0
  3
_CLOSEDBLANK
  1

  0
LINE
  5
5F
330
5E
100
AcDbEntity
  8
0
100
AcDbLine
 10
0.0
 20
0.0
 30
0.0
 11
-1.0
 21
0.1666666666666667
 31
0.0
  0
LINE
  5
60
330
5E
100
AcDbEntity
  8
0
100
AcDbLine
 10
0.0
 20
0.0
 30
0.0
 11
-1.0
 21
-0.1666666666666667
 31
0.0
  0
LINE
  5
61
330
5E
100
AcDbEntity
  8
0
100
AcDbLine
 10
-1.0
 20
0.1666666666666667
 30
0.0
 11
-1.0
 21
-0.1666666666666667
 31
0.0
  0
ENDBLK
  5
63
330
5E
100
AcDbEntity
  8
0
100
AcDbBlockEnd
  0
BLOCK
  5
66
330
64
100
AcDbEntity
  8
0
100
AcDbBlockBegin
  2
_ARROWFILLED
 70
     0
 10
0.0
 20
0.0
 30
0.0
  3
_ARROWFILLED
  1

  0
SOLID
  5
65
330
64
100
AcDbEntity
  8
0
100
AcDbTrace
 10
0.0
 20
0.0
 30
0.0
 11
-1.0
 21
-0.1666666666666667
 31
0.0
 12
-1.0
 22
0.1666666666666667
 32
0.0
 13
0.0
 23
0.0
 33
0.0
  0
ENDBLK
  5
67
330
64
100
AcDbEntity
  8
0
100
AcDbBlockEnd
  0
BLOCK
  5
6E
330
68
100
AcDbEntity
  8
0
100
AcDbBlockBegin
  2
_BOXBLANK
 70
     0
 10
0.0
 20
0.0
 30
0.0
  3
_BOXBLANK
  1

  0
LINE
  5
69
330
68
100
AcDbEntity
  8
0
100
AcDbLine
 10
-0.5
 20
-0.5
 30
0.0
 11
0.5
 21
-0.5
 31
0.0
  0
LINE
  5
6A
330
68
100
AcDbEntity
  8
0
100
AcDbLine
 10
0.5
 20
-0.5
 30
0.0
 11
0.5
 21
0.5
 31
0.0
  0
LINE
  5
6B
330
68
100
AcDbEntity
  8
0
100
AcDbLine
 10
0.5
 20
0.5
 30
0.0
 11
-0.5
 21
0.5
 31
0.0
  0
LINE
  5
6C
330
68
100
AcDbEntity
  8
0
100
AcDbLine
 10
-0.5
 20
0.5
 30
0.0
 11
-0.5
 21
-0.5
 31
0.0
  0
LINE
  5
6D
330
68
100
AcDbEntity
  8
0
100
AcDbLine
 10
-0.5
 20
0.0
 30
0.0
 11
-1.0
 21
0.0
 31
0.0
  0
ENDBLK
  5
6F
330
68
100
AcDbEntity
  8
0
100
AcDbBlockEnd
  0
BLOCK
  5
73
330
70
100
AcDbEntity
  8
0
100
AcDbBlockBegin
  2
_BOXFILLED
 70
     0
 10
0.0
 20
0.0
 30
0.0
  3
_BOXFILLED
  1

  0
SOLID
  5
71
330
70
100
AcDbEntity
  8
0
100
AcDbTrace
 10
-0.5
 20
0.5
 30
0.0
 11
0.5
 21
0.5
 31
0.0
 12
-0.5
 22
-0.5
 32
0.0
 13
0.5
 23
-0.5
 33
0.0
  0
LINE
  5
72
330
70
100
AcDbEntity
  8
0
100
AcDbLine
 10
-0.5
 20
0.0
 30
0.0
 11
-1.0
 21
0.0
 31
0.0
  0
ENDBLK
  5
74
330
70
100
AcDbEntity
  8
0
100
AcDbBlockEnd
  0
BLOCK
  5
78
330
75
100
AcDbEntity
  8
0
100
AcDbBlockBegin
  2
_INTEGRAL
 70
     0
 10
0.0
 20
0.0
 30
0.0
  3
_INTEGRAL
  1

  0
ARC
  5
76
330
75
100
AcDbEntity
  8
0
100
AcDbCircle
 10
0.444888
 20
-0.0913346
 30
0.0
 40
0.4541666
100
AcDbArc
 50
101.9999999999999
 51
167.9999999999998
  0
ARC
  5
77
330
75
100
AcDbEntity
  8
0
100
AcDbCircle
 10
-0.444888
 20
0.0913346
 30
0.0
 40
0.4541666
100
AcDbArc
 50
281.9999999999997
 51
347.9999999999997
  0
ENDBLK
  5
79
330
75
100
AcDbEntity
  8
0
100
AcDbBlockEnd
  0
BLOCK
  5
7C
330
7A
100
AcDbEntity
  8
0
100
AcDbBlockBegin
  2
_OBLIQUE
 70
     0
 10
0.0
 20
0.0
 30
0.0
  3
_OBLIQUE
  1

  0
LINE
  5
7B
330
7A
100
AcDbEntity
  8
0
100
AcDbLine
 10
-0.5
 20
-0.5
 30
0.0
 11
0.5
 21
0.5
 31
0.0
  0
ENDBLK
  5
7D
330
7A
100
AcDbEntity
  8
0
100
AcDbBlockEnd
  0
BLOCK
  5
7F
330
7E
100
AcDbEntity
  8
0
100
AcDbBlockBegin
  2
_NONE
 70
     0
 10
0.0
 20
0.0
 30
0.0
  3
_NONE
  1

  0
ENDBLK
  5
80
330
7E
100
AcDbEntity
  8
0
100
AcDbBlockEnd
  0
BLOCK
  5
84
330
81
100
AcDbEntity
  8
0
100
AcDbBlockBegin
  2
MARK_OPEN
 70
     0
 10
0.0
 20
0.0
 30
0.0
  3
MARK_OPEN
  1

  0
LINE
  5
82
330
81
100
AcDbEntity
  8
0
100
AcDbLine
 10
0.0
 20
0.0
 30
0.0
 11
-1.0
 21
0.1666666666666667
 31
0.0
  0
LINE
  5
83
330
81
100
AcDbEntity
  8
0
100
AcDbLine
 10
0.0
 20
0.0
 30
0.0
 11
-1.0
 21
-0.1666666666666667
 31
0.0
  0
ENDBLK
  5
85
330
81
100
AcDbEntity
  8
0
100
AcDbBlockEnd
  0
BLOCK
  5
88
330
86
100
AcDbEntity
  8
0
100
AcDbBlockBegin
  2
MARK_ORIGIN
 70
     0
 10
0.0
 20
0.0
 30
0.0
  3
MARK_ORIGIN
  1

  0
CIRCLE
  5
87
330
86
100
AcDbEntity
  8
0
100
AcDbCircle
 10
0.0
 20
0.0
 30
0.0
 40
0.5
  0
ENDBLK
  5
89
330
86
100
AcDbEntity
  8
0
100
AcDbBlockEnd
  0
BLOCK
  5
8C
330
8A
100
AcDbEntity
  8
0
100
AcDbBlockBegin
  2
MARK_DOT
 70
     0
 10
0.0
 20
0.0
 30
0.0
  3
MARK_DOT
  1

  0
LWPOLYLINE
  5
8B
330
8A
100
AcDbEntity
  8
0
100
AcDbPolyline
 90
        2
 70
     1
 43
0.5
 10
-0.25
 20
0.0
 42
1.0
 10
0.25
 20
0.0
 42
1.0
  0
ENDBLK
  5
8D
330
8A
100
AcDbEntity
  8
0
100
AcDbBlockEnd
  0
ENDSEC
  0
SECTION
  2
ENTITIES
  0
LINE
  5
AB
330
1F
100
AcDbEntity
  8
1
  6
Continuous
 62
     7
370
     9
100
AcDbLine
 10
93.19863141524105
 20
104.8856454121307
 30
0.0
 11
93.19863141524105
 21
118.8856454121307
 31
0.0
  0
LINE
  5
AC
330
1F
100
AcDbEntity
  8
1
  6
Continuous
 62
     7
370
     9
100
AcDbLine
 10
81.69863141524105
 20
104.8856454121307
 30
0.0
 11
93.19863141524105
 21
104.8856454121307
 31
0.0
  0
LINE
  5
AD
330
1F
100
AcDbEntity
  8
1
  6
Continuous
 62
     7
370
     9
100
AcDbLine
 10
81.69863141524105
 20
118.8856454121307
 30
0.0
 11
93.19863141524105
 21
118.8856454121307
 31
0.0
  0
LINE
  5
AE
330
1F
100
AcDbEntity
  8
1
  6
Continuous
 62
     7
370
     9
100
AcDbLine
 10
80.69863141524105
 20
105.8856454121307
 30
0.0
 11
80.69863141524105
 21
117.8856454121307
 31
0.0
  0
LINE
  5
AF
330
1F
100
AcDbEntity
  8
1
  6
Continuous
 62
     7
370
     9
100
AcDbLine
 10
80.69863141524105
 20
105.8856454121307
 30
0.0
 11
81.69863141524105
 21
104.8856454121307
 31
0.0
  0
LINE
  5
B0
330
1F
100
AcDbEntity
  8
1
  6
Continuous
 62
     7
370
     9
100
AcDbLine
 10
80.69863141524105
 20
117.8856454121307
 30
0.0
 11
81.69863141524105
 21
118.8856454121307
 31
0.0
  0
LINE
  5
B1
330
1F
100
AcDbEntity
  8
1
  6
Continuous
 62
     7
370
     9
100
AcDbLine
 10
81.69863141524105
 20
104.8856454121307
 30
0.0
 11
81.69863141524105
 21
118.8856454121307
 31
0.0
  0
LINE
  5
B2
330
1F
100
AcDbEntity
  8
1
  6
Continuous
 62
     7
370
     9
100
AcDbLine
 10
310.2935458786936
 20
106.3456454121307
 30
0.0
 11
310.2935458786936
 21
124.3456454121307
 31
0.0
  0
LINE
  5
B3
330
1F
100
AcDbEntity
  8
1
  6
Continuous
 62
     7
370
     9
100
AcDbLine
 10
295.2935458786936
 20
106.3456454121307
 30
0.0
 11
310.2935458786936
 21
106.3456454121307
 31
0.0
  0
LINE
  5
B4
330
1F
100
AcDbEntity
  8
1
  6
Continuous
 62
     7
370
     9
100
AcDbLine
 10
295.2935458786936
 20
124.3456454121307
 30
0.0
 11
310.2935458786936
 21
124.3456454121307
 31
0.0
  0
LINE
  5
B5
330
1F
100
AcDbEntity
  8
1
  6
Continuous
 62
     7
370
     9
100
AcDbLine
 10
294.2935458786936
 20
107.3456454121307
 30
0.0
 11
294.2935458786936
 21
123.3456454121307
 31
0.0
  0
LINE
  5
B6
330
1F
100
AcDbEntity
  8
1
  6
Continuous
 62
     7
370
     9
100
AcDbLine
 10
294.2935458786936
 20
107.3456454121307
 30
0.0
 11
295.2935458786936
 21
106.3456454121307
 31
0.0
  0
LINE
  5
B7
330
1F
100
AcDbEntity
  8
1
  6
Continuous
 62
     7
370
     9
100
AcDbLine
 10
294.2935458786936
 20
123.3456454121307
 30
0.0
 11
295.2935458786936
 21
124.3456454121307
 31
0.0
  0
LINE
  5
B8
330
1F
100
AcDbEntity
  8
1
  6
Continuous
 62
     7
370
     9
100
AcDbLine
 10
295.2935458786936
 20
106.3456454121307
 30
0.0
 11
295.2935458786936
 21
124.3456454121307
 31
0.0
  0
LINE
  5
B9
330
1F
100
AcDbEntity
  8
1
  6
Continuous
 62
     7
370
     9
100
AcDbLine
 10
518.9467340590979
 20
106.3456454121307
 30
0.0
 11
518.9467340590979
 21
128.3456454121307
 31
0.0
  0
LINE
  5
BA
330
1F
100
AcDbEntity
  8
1
  6
Continuous
 62
     7
370
     9
100
AcDbLine
 10
502.946734059098
 20
106.3456454121307
 30
0.0
 11
518.9467340590979
 21
106.3456454121307
 31
0.0
  0
LINE
  5
BB
330
1F
100
AcDbEntity
  8
1
  6
Continuous
 62
     7
370
     9
100
AcDbLine
 10
502.946734059098
 20
128.3456454121307
 30
0.0
 11
518.9467340590979
 21
128.3456454121307
 31
0.0
  0
LINE
  5
BC
330
1F
100
AcDbEntity
  8
1
  6
Continuous
 62
     7
370
     9
100
AcDbLine
 10
501.946734059098
 20
107.3456454121307
 30
0.0
 11
501.946734059098
 21
127.3456454121307
 31
0.0
  0
LINE
  5
BD
330
1F
100
AcDbEntity
  8
1
  6
Continuous
 62
     7
370
     9
100
AcDbLine
 10
501.946734059098
 20
107.3456454121307
 30
0.0
 11
502.946734059098
 21
106.3456454121307
 31
0.0
  0
LINE
  5
BE
330
1F
100
AcDbEntity
  8
1
  6
Continuous
 62
     7
370
     9
100
AcDbLine
 10
501.946734059098
 20
127.3456454121307
 30
0.0
 11
502.946734059098
 21
128.3456454121307
 31
0.0
  0
LINE
  5
BF
330
1F
100
AcDbEntity
  8
1
  6
Continuous
 62
     7
370
     9
100
AcDbLine
 10
502.946734059098
 20
106.3456454121307
 30
0.0
 11
502.946734059098
 21
128.3456454121307
 31
0.0
  0
LINE
  5
C0
330
1F
100
AcDbEntity
  8
1
  6
Continuous
 62
     7
370
     9
100
AcDbLine
 10
762.9902799377917
 20
106.3456454121307
 30
0.0
 11
762.9902799377917
 21
132.3456454121307
 31
0.0
  0
LINE
  5
C1
330
1F
100
AcDbEntity
  8
1
  6
Continuous
 62
     7
370
     9
100
AcDbLine
 10
742.9902799377917
 20
106.3456454121307
 30
0.0
 11
762.9902799377917
 21
106.3456454121307
 31
0.0
  0
LINE
  5
C2
330
1F
100
AcDbEntity
  8
1
  6
Continuous
 62
     7
370
     9
100
AcDbLine
 10
742.9902799377917
 20
132.3456454121307
 30
0.0
 11
762.9902799377917
 21
132.3456454121307
 31
0.0
  0
LINE
  5
C3
330
1F
100
AcDbEntity
  8
1
  6
Continuous
 62
     7
370
     9
100
AcDbLine
 10
741.9902799377917
 20
107.3456454121307
 30
0.0
 11
741.9902799377917
 21
131.3456454121307
 31
0.0
  0
LINE
  5
C4
330
1F
100
AcDbEntity
  8
1
  6
Continuous
 62
     7
370
     9
100
AcDbLine
 10
741.9902799377917
 20
107.3456454121307
 30
0.0
 11
742.9902799377917
 21
106.3456454121307
 31
0.0
  0
LINE
  5
C5
330
1F
100
AcDbEntity
  8
1
  6
Continuous
 62
     7
370
     9
100
AcDbLine
 10
741.9902799377917
 20
131.3456454121307
 30
0.0
 11
742.9902799377917
 21
132.3456454121307
 31
0.0
  0
LINE
  5
C6
330
1F
100
AcDbEntity
  8
1
  6
Continuous
 62
     7
370
     9
100
AcDbLine
 10
742.9902799377917
 20
106.3456454121307
 30
0.0
 11
742.9902799377917
 21
132.3456454121307
 31
0.0
  0
CIRCLE
  5
C7
330
1F
100
AcDbEntity
  8
1
  6
Continuous
 62
     7
370
     9
100
AcDbCircle
 10
53.69863141524105
 20
111.8856454121307
 30
0.0
 40
6.999999999999996
  0
CIRCLE
  5
C8
330
1F
100
AcDbEntity
  8
1
  6
Continuous
 62
     7
370
     9
100
AcDbCircle
 10
53.69863141524105
 20
111.8856454121307
 30
0.0
 40
6.0
  0
CIRCLE
  5
C9
330
1F
100
AcDbEntity
  8
1
  6
Continuous
 62
     7
370
     9
100
AcDbCircle
 10
120.1986314152411
 20
111.8856454121307
 30
0.0
 40
7.0
  0
CIRCLE
  5
CA
330
1F
100
AcDbEntity
  8
1
  6
Continuous
 62
     7
370
     9
100
AcDbCircle
 10
120.1986314152411
 20
111.8856454121307
 30
0.0
 40
5.049999999999997
  0
CIRCLE
  5
CB
330
1F
100
AcDbEntity
  8
1
  6
Continuous
 62
     7
370
     9
100
AcDbCircle
 10
120.1986314152411
 20
111.8856454121307
 30
0.0
 40
4.864000000000004
  0
CIRCLE
  5
CC
330
1F
100
AcDbEntity
  8
1
  6
Continuous
 62
     7
370
     9
100
AcDbCircle
 10
120.1986314152411
 20
111.8856454121307
 30
0.0
 40
4.283000000000001
  0
CIRCLE
  5
CD
330
1F
100
AcDbEntity
  8
1
  6
Continuous
 62
     7
370
     9
100
AcDbCircle
 10
265.2935458786937
 20
115.3456454121307
 30
0.0
 40
9.0
  0
CIRCLE
  5
CE
330
1F
100
AcDbEntity
  8
1
  6
Continuous
 62
     7
370
     9
100
AcDbCircle
 10
265.2935458786937
 20
115.3456454121307
 30
0.0
 40
8.0
  0
CIRCLE
  5
CF
330
1F
100
AcDbEntity
  8
1
  6
Continuous
 62
     7
370
     9
100
AcDbCircle
 10
339.2935458786937
 20
115.3456454121307
 30
0.0
 40
9.0
  0
CIRCLE
  5
D0
330
1F
100
AcDbEntity
  8
1
  6
Continuous
 62
     7
370
     9
100
AcDbCircle
 10
339.2935458786937
 20
115.3456454121307
 30
0.0
 40
6.578500000000005
  0
CIRCLE
  5
D1
330
1F
100
AcDbEntity
  8
1
  6
Continuous
 62
     7
370
     9
100
AcDbCircle
 10
339.2935458786937
 20
115.3456454121307
 30
0.0
 40
5.722499999999997
  0
CIRCLE
  5
D2
330
1F
100
AcDbEntity
  8
1
  6
Continuous
 62
     7
370
     9
100
AcDbCircle
 10
339.2935458786937
 20
115.3456454121307
 30
0.0
 40
6.849999999999994
  0
CIRCLE
  5
D3
330
1F
100
AcDbEntity
  8
1
  6
Continuous
 62
     7
370
     9
100
AcDbCircle
 10
549.9467340590978
 20
117.3456454121307
 30
0.0
 40
11.0
  0
CIRCLE
  5
D4
330
1F
100
AcDbEntity
  8
1
  6
Continuous
 62
     7
370
     9
100
AcDbCircle
 10
549.9467340590978
 20
117.3456454121307
 30
0.0
 40
8.331000000000003
  0
CIRCLE
  5
D5
330
1F
100
AcDbEntity
  8
1
  6
Continuous
 62
     7
370
     9
100
AcDbCircle
 10
549.9467340590978
 20
117.3456454121307
 30
0.0
 40
7.474999999999994
  0
CIRCLE
  5
D6
330
1F
100
AcDbEntity
  8
1
  6
Continuous
 62
     7
370
     9
100
AcDbCircle
 10
549.9467340590978
 20
117.3456454121307
 30
0.0
 40
8.599999999999994
  0
CIRCLE
  5
D7
330
1F
100
AcDbEntity
  8
1
  6
Continuous
 62
     7
370
     9
100
AcDbCircle
 10
470.946734059098
 20
117.3456454121307
 30
0.0
 40
11.0
  0
CIRCLE
  5
D8
330
1F
100
AcDbEntity
  8
1
  6
Continuous
 62
     7
370
     9
100
AcDbCircle
 10
470.946734059098
 20
117.3456454121307
 30
0.0
 40
10.0
  0
CIRCLE
  5
D9
330
1F
100
AcDbEntity
  8
1
  6
Continuous
 62
     7
370
     9
100
AcDbCircle
 10
708.9902799377917
 20
119.3456454121307
 30
0.0
 40
13.0
  0
CIRCLE
  5
DA
330
1F
100
AcDbEntity
  8
1
  6
Continuous
 62
     7
370
     9
100
AcDbCircle
 10
708.9902799377917
 20
119.3456454121307
 30
0.0
 40
12.0
  0
CIRCLE
  5
DB
330
1F
100
AcDbEntity
  8
1
  6
Continuous
 62
     7
370
     9
100
AcDbCircle
 10
795.9902799377917
 20
119.3456454121307
 30
0.0
 40
13.0
  0
CIRCLE
  5
DC
330
1F
100
AcDbEntity
  8
1
  6
Continuous
 62
     7
370
     9
100
AcDbCircle
 10
795.9902799377917
 20
119.3456454121307
 30
0.0
 40
10.84999999999999
  0
CIRCLE
  5
DD
330
1F
100
AcDbEntity
  8
1
  6
Continuous
 62
     7
370
     9
100
AcDbCircle
 10
795.9902799377917
 20
119.3456454121307
 30
0.0
 40
10.47749999999999
  0
CIRCLE
  5
DE
330
1F
100
AcDbEntity
  8
1
  6
Continuous
 62
     7
370
     9
100
AcDbCircle
 10
795.9902799377917
 20
119.3456454121307
 30
0.0
 40
9.3155
  0
LINE
  5
DF
330
1F
100
AcDbEntity
  8
1
  6
Continuous
 62
     7
370
     9
100
AcDbLine
 10
988.5420042581609
 20
139.3456454121307
 30
0.0
 11
988.5420042581609
 21
107.3456454121307
 31
0.0
  0
LINE
  5
E0
330
1F
100
AcDbEntity
  8
1
  6
Continuous
 62
     7
370
     9
100
AcDbLine
 10
969.6478774026231
 20
139.0462972769208
 30
0.0
 11
967.2974972974207
 21
135.6307170515709
 31
0.0
  0
LINE
  5
E1
330
1F
100
AcDbEntity
  8
1
  6
Continuous
 62
     7
370
     9
100
AcDbLine
 10
983.0420042581609
 20
119.8456454121307
 30
0.0
 11
983.0420042581609
 21
107.8456454121307
 31
0.0
  0
LINE
  5
E2
330
1F
100
AcDbEntity
  8
1
  6
Continuous
 62
     7
370
     9
100
AcDbLine
 10
981.5420042581609
 20
121.3456454121307
 30
0.0
 11
968.8074090368884
 21
121.3456454121307
 31
0.0
  0
LINE
  5
E3
330
1F
100
AcDbEntity
  8
1
  6
Continuous
 62
     7
370
     9
100
AcDbLine
 10
981.7920042581609
 20
119.3456454121307
 30
0.0
 11
981.7920042581609
 21
109.5956454121307
 31
0.0
  0
LINE
  5
E4
330
1F
100
AcDbEntity
  8
1
  6
Continuous
 62
     7
370
     9
100
AcDbLine
 10
979.7920042581609
 20
107.5956454121307
 30
0.0
 11
973.8878785629581
 21
107.5956454121307
 31
0.0
  0
LINE
  5
E5
330
1F
100
AcDbEntity
  8
1
  6
Continuous
 62
     7
370
     9
100
AcDbLine
 10
987.5420042581609
 20
106.3456454121307
 30
0.0
 11
972.1192703771995
 21
106.3456454121307
 31
0.0
  0
LINE
  5
E6
330
1F
100
AcDbEntity
  8
1
  6
Continuous
 62
     7
370
     9
100
AcDbLine
 10
969.6478774026231
 20
107.6449935473406
 30
0.0
 11
967.2974972974207
 21
111.0605737726905
 31
0.0
  0
LINE
  5
E7
330
1F
100
AcDbEntity
  8
1
  6
Continuous
 62
     7
370
     9
100
AcDbLine
 10
987.5420042581609
 20
140.3456454121307
 30
0.0
 11
972.1192703771995
 21
140.3456454121307
 31
0.0
  0
LINE
  5
E8
330
1F
100
AcDbEntity
  8
1
  6
Continuous
 62
     7
370
     9
100
AcDbLine
 10
979.7920042581609
 20
139.0956454121307
 30
0.0
 11
973.8878785629581
 21
139.0956454121307
 31
0.0
  0
LINE
  5
E9
330
1F
100
AcDbEntity
  8
1
  6
Continuous
 62
     7
370
     9
100
AcDbLine
 10
981.7920042581609
 20
127.3456454121307
 30
0.0
 11
981.7920042581609
 21
137.0956454121307
 31
0.0
  0
LINE
  5
EA
330
1F
100
AcDbEntity
  8
1
  6
Continuous
 62
     7
370
     9
100
AcDbLine
 10
983.0420042581609
 20
126.8456454121307
 30
0.0
 11
983.0420042581609
 21
138.8456454121307
 31
0.0
  0
LINE
  5
EB
330
1F
100
AcDbEntity
  8
1
  6
Continuous
 62
     7
370
     9
100
AcDbLine
 10
981.5420042581609
 20
125.3456454121307
 30
0.0
 11
968.8074090368884
 21
125.3456454121307
 31
0.0
  0
LINE
  5
EC
330
1F
100
AcDbEntity
  8
1
  6
Continuous
 62
     7
370
     9
100
AcDbLine
 10
968.8074090368884
 20
124.8456454121307
 30
0.0
 11
968.8074090368884
 21
121.8456454121307
 31
0.0
  0
ARC
  5
ED
330
1F
100
AcDbEntity
  8
1
  6
Continuous
 62
     7
370
     9
100
AcDbCircle
 10
972.1192703771995
 20
109.3456454121307
 30
0.0
 40
3.0
100
AcDbArc
 50
214.5332190407718
 51
270.0000000000018
  0
ARC
  5
EE
330
1F
100
AcDbEntity
  8
1
  6
Continuous
 62
     7
370
     9
100
AcDbCircle
 10
972.1192703771995
 20
137.3456454121307
 30
0.0
 40
3.0
100
AcDbArc
 50
89.99999999999991
 51
145.4667809592279
  0
ARC
  5
EF
330
1F
100
AcDbEntity
  8
1
  6
Continuous
 62
     7
370
     9
100
AcDbCircle
 10
981.5420042581609
 20
107.8456454121307
 30
0.0
 40
1.5
100
AcDbArc
 50
269.9999999999998
 51
0.0
  0
ARC
  5
F0
330
1F
100
AcDbEntity
  8
1
  6
Continuous
 62
     7
370
     9
100
AcDbCircle
 10
979.7920042581609
 20
119.3456454121307
 30
0.0
 40
2.0
100
AcDbArc
 50
0.0
 51
89.99999999999991
  0
ARC
  5
F1
330
1F
100
AcDbEntity
  8
1
  6
Continuous
 62
     7
370
     9
100
AcDbCircle
 10
979.7920042581609
 20
109.5956454121307
 30
0.0
 40
2.0
100
AcDbArc
 50
269.9999999999998
 51
0.0
  0
ARC
  5
F2
330
1F
100
AcDbEntity
  8
1
  6
Continuous
 62
     7
370
     9
100
AcDbCircle
 10
987.5420042581609
 20
107.3456454121307
 30
0.0
 40
1.0
100
AcDbArc
 50
269.9999999999998
 51
0.0
  0
ARC
  5
F3
330
1F
100
AcDbEntity
  8
1
  6
Continuous
 62
     7
370
     9
100
AcDbCircle
 10
973.8878785629581
 20
115.5956454121307
 30
0.0
 40
8.0
100
AcDbArc
 50
185.1107088332777
 51
269.9999999999998
  0
ARC
  5
F4
330
1F
100
AcDbEntity
  8
1
  6
Continuous
 62
     7
370
     9
100
AcDbCircle
 10
981.5420042581609
 20
119.8456454121307
 30
0.0
 40
1.5
100
AcDbArc
 50
0.0
 51
89.99999999999991
  0
ARC
  5
F5
330
1F
100
AcDbEntity
  8
1
  6
Continuous
 62
     7
370
     9
100
AcDbCircle
 10
1060.542004258161
 20
123.3456454121307
 30
0.0
 40
95.0
100
AcDbArc
 50
174.8892911667228
 51
185.1107088332775
  0
ARC
  5
F6
330
1F
100
AcDbEntity
  8
1
  6
Continuous
 62
     7
370
     9
100
AcDbCircle
 10
987.5420042581609
 20
139.3456454121307
 30
0.0
 40
1.0
100
AcDbArc
 50
0.0
 51
89.99999999999991
  0
ARC
  5
F7
330
1F
100
AcDbEntity
  8
1
  6
Continuous
 62
     7
370
     9
100
AcDbCircle
 10
1060.542004258161
 20
123.3456454121307
 30
0.0
 40
95.0
100
AcDbArc
 50
174.8892911667228
 51
175.7743760805386
  0
ARC
  5
F8
330
1F
100
AcDbEntity
  8
1
  6
Continuous
 62
     7
370
     9
100
AcDbCircle
 10
979.7920042581609
 20
137.0956454121307
 30
0.0
 40
2.0
100
AcDbArc
 50
0.0
 51
89.99999999999991
  0
ARC
  5
F9
330
1F
100
AcDbEntity
  8
1
  6
Continuous
 62
     7
370
     9
100
AcDbCircle
 10
981.5420042581609
 20
126.8456454121307
 30
0.0
 40
1.5
100
AcDbArc
 50
269.9999999999998
 51
0.0
  0
ARC
  5
FA
330
1F
100
AcDbEntity
  8
1
  6
Continuous
 62
     7
370
     9
100
AcDbCircle
 10
973.8878785629581
 20
131.0956454121307
 30
0.0
 40
8.0
100
AcDbArc
 50
89.99999999999991
 51
174.8892911667228
  0
ARC
  5
FB
330
1F
100
AcDbEntity
  8
1
  6
Continuous
 62
     7
370
     9
100
AcDbCircle
 10
979.7920042581609
 20
127.3456454121307
 30
0.0
 40
2.0
100
AcDbArc
 50
269.9999999999998
 51
0.0
  0
ARC
  5
FC
330
1F
100
AcDbEntity
  8
1
  6
Continuous
 62
     7
370
     9
100
AcDbCircle
 10
981.5420042581609
 20
138.8456454121307
 30
0.0
 40
1.5
100
AcDbArc
 50
0.0
 51
89.99999999999991
  0
CIRCLE
  5
FD
330
1F
100
AcDbEntity
  8
1
  6
Continuous
 62
     7
370
     9
100
AcDbCircle
 10
1025.542004258161
 20
123.3456454121307
 30
0.0
 40
17.0
  0
CIRCLE
  5
FE
330
1F
100
AcDbEntity
  8
1
  6
Continuous
 62
     7
370
     9
100
AcDbCircle
 10
1025.542004258161
 20
123.3456454121307
 30
0.0
 40
13.55000000000001
  0
CIRCLE
  5
FF
330
1F
100
AcDbEntity
  8
1
  6
Continuous
 62
     7
370
     9
100
AcDbCircle
 10
1025.542004258161
 20
123.3456454121307
 30
0.0
 40
13.22049999999999
  0
CIRCLE
  5
100
330
1F
100
AcDbEntity
  8
1
  6
Continuous
 62
     7
370
     9
100
AcDbCircle
 10
1025.542004258161
 20
123.3456454121307
 30
0.0
 40
12.05850000000001
  0
LINE
  5
101
330
1F
100
AcDbEntity
  8
1
  6
Continuous
 62
     7
370
     9
100
AcDbLine
 10
945.423947274295
 20
125.3456454121307
 30
0.0
 11
940.827075897601
 21
125.3456454121307
 31
0.0
  0
LINE
  5
102
330
1F
100
AcDbEntity
  8
1
  6
Continuous
 62
     7
370
     9
100
AcDbLine
 10
926.5420042581609
 20
140.2275884282648
 30
0.0
 11
926.5420042581609
 21
135.6307170515709
 31
0.0
  0
LINE
  5
103
330
1F
100
AcDbEntity
  8
1
  6
Continuous
 62
     7
370
     9
100
AcDbLine
 10
945.423947274295
 20
121.3456454121307
 30
0.0
 11
940.827075897601
 21
121.3456454121307
 31
0.0
  0
LINE
  5
104
330
1F
100
AcDbEntity
  8
1
  6
Continuous
 62
     7
370
     9
100
AcDbLine
 10
930.5420042581609
 20
140.2275884282648
 30
0.0
 11
930.5420042581609
 21
135.6307170515709
 31
0.0
  0
LINE
  5
105
330
1F
100
AcDbEntity
  8
1
  6
Continuous
 62
     7
370
     9
100
AcDbLine
 10
916.2569326187207
 20
121.3456454121307
 30
0.0
 11
911.6600612420267
 21
121.3456454121307
 31
0.0
  0
LINE
  5
106
330
1F
100
AcDbEntity
  8
1
  6
Continuous
 62
     7
370
     9
100
AcDbLine
 10
926.5420042581609
 20
111.0605737726905
 30
0.0
 11
926.5420042581609
 21
106.4637023959966
 31
0.0
  0
LINE
  5
107
330
1F
100
AcDbEntity
  8
1
  6
Continuous
 62
     7
370
     9
100
AcDbLine
 10
916.2569326187207
 20
125.3456454121307
 30
0.0
 11
911.6600612420267
 21
125.3456454121307
 31
0.0
  0
LINE
  5
108
330
1F
100
AcDbEntity
  8
1
  6
Continuous
 62
     7
370
     9
100
AcDbLine
 10
930.5420042581609
 20
111.0605737726905
 30
0.0
 11
930.5420042581609
 21
106.4637023959966
 31
0.0
  0
ARC
  5
109
330
1F
100
AcDbEntity
  8
1
  6
Continuous
 62
     7
370
     9
100
AcDbCircle
 10
928.5420042581609
 20
123.3456454121307
 30
0.0
 40
15.75
100
AcDbArc
 50
187.2953510849167
 51
262.7046489150841
  0
ARC
  5
10A
330
1F
100
AcDbEntity
  8
1
  6
Continuous
 62
     7
370
     9
100
AcDbCircle
 10
928.5420042581609
 20
123.3456454121307
 30
0.0
 40
15.75
100
AcDbArc
 50
7.295351084916437
 51
82.70464891508357
  0
CIRCLE
  5
10B
330
1F
100
AcDbEntity
  8
1
  6
Continuous
 62
     7
370
     9
100
AcDbCircle
 10
928.5420042581609
 20
123.3456454121307
 30
0.0
 40
17.0
  0
ARC
  5
10C
330
1F
100
AcDbEntity
  8
1
  6
Continuous
 62
     7
370
     9
100
AcDbCircle
 10
928.5420042581609
 20
123.3456454121307
 30
0.0
 40
15.75
100
AcDbArc
 50
97.29535108491645
 51
172.7046489150836
  0
ARC
  5
10D
330
1F
100
AcDbEntity
  8
1
  6
Continuous
 62
     7
370
     9
100
AcDbCircle
 10
928.5420042581609
 20
123.3456454121307
 30
0.0
 40
15.75
100
AcDbArc
 50
277.2953510849165
 51
352.704648915084
  0
LINE
  5
10E
330
1F
100
AcDbEntity
  8
1
  6
Continuous
 62
     7
370
     9
100
AcDbLine
 10
89.60274245732481
 20
375.4685069984449
 30
0.0
 11
105.698631415241
 21
375.4685069984449
 31
0.0
  0
LINE
  5
10F
330
1F
100
AcDbEntity
  8
1
  6
Continuous
 62
     7
370
     9
100
AcDbLine
 10
107.698631415241
 20
382.4685069984449
 30
0.0
 11
107.698631415241
 21
396.4685069984449
 31
0.0
  0
LINE
  5
110
330
1F
100
AcDbEntity
  8
1
  6
Continuous
 62
     7
370
     9
100
AcDbLine
 10
107.698631415241
 20
373.4685069984449
 30
0.0
 11
107.698631415241
 21
359.4685069984449
 31
0.0
  0
LINE
  5
111
330
1F
100
AcDbEntity
  8
1
  6
Continuous
 62
     7
370
     9
100
AcDbLine
 10
113.698631415241
 20
397.4685069984449
 30
0.0
 11
113.698631415241
 21
358.4685069984449
 31
0.0
  0
LINE
  5
112
330
1F
100
AcDbEntity
  8
1
  6
Continuous
 62
     7
370
     9
100
AcDbLine
 10
97.07124594387997
 20
397.2185069984449
 30
0.0
 11
103.448631415241
 21
397.2185069984449
 31
0.0
  0
LINE
  5
113
330
1F
100
AcDbEntity
  8
1
  6
Continuous
 62
     7
370
     9
100
AcDbLine
 10
89.60274245732481
 20
375.9685069984449
 30
0.0
 11
89.60274245732481
 21
379.9685069984449
 31
0.0
  0
LINE
  5
114
330
1F
100
AcDbEntity
  8
1
  6
Continuous
 62
     7
370
     9
100
AcDbLine
 10
89.60274245732481
 20
380.4685069984449
 30
0.0
 11
105.698631415241
 21
380.4685069984449
 31
0.0
  0
LINE
  5
115
330
1F
100
AcDbEntity
  8
1
  6
Continuous
 62
     7
370
     9
100
AcDbLine
 10
92.80376301939904
 20
358.4735305548702
 30
0.0
 11
89.60274245732481
 21
362.0685855198624
 31
0.0
  0
LINE
  5
116
330
1F
100
AcDbEntity
  8
1
  6
Continuous
 62
     7
370
     9
100
AcDbLine
 10
106.448631415241
 20
383.4685069984449
 30
0.0
 11
106.448631415241
 21
394.2185069984449
 31
0.0
  0
LINE
  5
117
330
1F
100
AcDbEntity
  8
1
  6
Continuous
 62
     7
370
     9
100
AcDbLine
 10
97.07124594387997
 20
358.7185069984449
 30
0.0
 11
103.448631415241
 21
358.7185069984449
 31
0.0
  0
LINE
  5
118
330
1F
100
AcDbEntity
  8
1
  6
Continuous
 62
     7
370
     9
100
AcDbLine
 10
95.04431406536563
 20
357.4685069984449
 30
0.0
 11
112.698631415241
 21
357.4685069984449
 31
0.0
  0
LINE
  5
119
330
1F
100
AcDbEntity
  8
1
  6
Continuous
 62
     7
370
     9
100
AcDbLine
 10
106.448631415241
 20
372.4685069984449
 30
0.0
 11
106.448631415241
 21
361.7185069984449
 31
0.0
  0
LINE
  5
11A
330
1F
100
AcDbEntity
  8
1
  6
Continuous
 62
     7
370
     9
100
AcDbLine
 10
92.80376308805174
 20
397.4634835191232
 30
0.0
 11
89.60274245732481
 21
393.8684284770275
 31
0.0
  0
LINE
  5
11B
330
1F
100
AcDbEntity
  8
1
  6
Continuous
 62
     7
370
     9
100
AcDbLine
 10
95.04431406536563
 20
398.4685069984449
 30
0.0
 11
112.698631415241
 21
398.4685069984449
 31
0.0
  0
ARC
  5
11C
330
1F
100
AcDbEntity
  8
1
  6
Continuous
 62
     7
370
     9
100
AcDbCircle
 10
112.698631415241
 20
397.4685069984449
 30
0.0
 40
1.0
100
AcDbArc
 50
0.0
 51
89.99999999999991
  0
ARC
  5
11D
330
1F
100
AcDbEntity
  8
1
  6
Continuous
 62
     7
370
     9
100
AcDbCircle
 10
112.698631415241
 20
358.4685069984449
 30
0.0
 40
1.0
100
AcDbArc
 50
269.9999999999998
 51
0.0
  0
ARC
  5
11E
330
1F
100
AcDbEntity
  8
1
  6
Continuous
 62
     7
370
     9
100
AcDbCircle
 10
105.698631415241
 20
382.4685069984449
 30
0.0
 40
1.999999999999993
100
AcDbArc
 50
270.0000000000013
 51
0.0
  0
ARC
  5
11F
330
1F
100
AcDbEntity
  8
1
  6
Continuous
 62
     7
370
     9
100
AcDbCircle
 10
103.448631415241
 20
394.2185069984449
 30
0.0
 40
3.0
100
AcDbArc
 50
0.0
 51
89.99999999999991
  0
ARC
  5
120
330
1F
100
AcDbEntity
  8
1
  6
Continuous
 62
     7
370
     9
100
AcDbCircle
 10
103.448631415241
 20
383.4685069984449
 30
0.0
 40
3.0
100
AcDbArc
 50
270.0000000000007
 51
0.0
  0
ARC
  5
121
330
1F
100
AcDbEntity
  8
1
  6
Continuous
 62
     7
370
     9
100
AcDbCircle
 10
95.04431406536563
 20
395.4685069984449
 30
0.0
 40
3.0
100
AcDbArc
 50
89.99999999999991
 51
138.3182769986778
  0
ARC
  5
122
330
1F
100
AcDbEntity
  8
1
  6
Continuous
 62
     7
370
     9
100
AcDbCircle
 10
97.07124594387992
 20
387.2185069984449
 30
0.0
 40
10.0
100
AcDbArc
 50
89.99999999999991
 51
175.3864459320305
  0
ARC
  5
123
330
1F
100
AcDbEntity
  8
1
  6
Continuous
 62
     7
370
     9
100
AcDbCircle
 10
105.698631415241
 20
359.4685069984449
 30
0.0
 40
1.999999999999993
100
AcDbArc
 50
270.0000000000013
 51
0.0
  0
ARC
  5
124
330
1F
100
AcDbEntity
  8
1
  6
Continuous
 62
     7
370
     9
100
AcDbCircle
 10
95.04431406536563
 20
360.4685069984449
 30
0.0
 40
3.0
100
AcDbArc
 50
221.6817230013226
 51
269.9999999999998
  0
ARC
  5
125
330
1F
100
AcDbEntity
  8
1
  6
Continuous
 62
     7
370
     9
100
AcDbCircle
 10
103.448631415241
 20
372.4685069984449
 30
0.0
 40
3.0
100
AcDbArc
 50
0.0
 51
89.99999999999991
  0
ARC
  5
126
330
1F
100
AcDbEntity
  8
1
  6
Continuous
 62
     7
370
     9
100
AcDbCircle
 10
211.6986314152411
 20
377.9685069984449
 30
0.0
 40
125.0
100
AcDbArc
 50
175.3864422437283
 51
175.6413179117621
  0
ARC
  5
127
330
1F
100
AcDbEntity
  8
1
  6
Continuous
 62
     7
370
     9
100
AcDbCircle
 10
211.6986314152411
 20
377.9685069984449
 30
0.0
 40
125.0
100
AcDbArc
 50
175.3864422437283
 51
184.613557756272
  0
ARC
  5
128
330
1F
100
AcDbEntity
  8
1
  6
Continuous
 62
     7
370
     9
100
AcDbCircle
 10
103.448631415241
 20
361.7185069984449
 30
0.0
 40
3.0
100
AcDbArc
 50
270.0000000000007
 51
0.0
  0
ARC
  5
129
330
1F
100
AcDbEntity
  8
1
  6
Continuous
 62
     7
370
     9
100
AcDbCircle
 10
97.07124594387992
 20
368.7185069984449
 30
0.0
 40
10.0
100
AcDbArc
 50
184.6135540679701
 51
270.0000000000003
  0
ARC
  5
12A
330
1F
100
AcDbEntity
  8
1
  6
Continuous
 62
     7
370
     9
100
AcDbCircle
 10
105.698631415241
 20
373.4685069984449
 30
0.0
 40
1.999999999999993
100
AcDbArc
 50
0.0
 51
89.99999999999991
  0
ARC
  5
12B
330
1F
100
AcDbEntity
  8
1
  6
Continuous
 62
     7
370
     9
100
AcDbCircle
 10
105.698631415241
 20
396.4685069984449
 30
0.0
 40
1.999999999999993
100
AcDbArc
 50
0.0
 51
89.99999999999991
  0
LINE
  5
12C
330
1F
100
AcDbEntity
  8
1
  6
Continuous
 62
     7
370
     9
100
AcDbLine
 10
43.69863141524107
 20
362.0685855198624
 30
0.0
 11
43.69863141524107
 21
357.6215170490691
 31
0.0
  0
LINE
  5
12D
330
1F
100
AcDbEntity
  8
1
  6
Continuous
 62
     7
370
     9
100
AcDbLine
 10
48.69863141524107
 20
362.0685855198624
 30
0.0
 11
48.69863141524107
 21
357.6215170490691
 31
0.0
  0
LINE
  5
12E
330
1F
100
AcDbEntity
  8
1
  6
Continuous
 62
     7
370
     9
100
AcDbLine
 10
43.69863141524107
 20
398.3154969478207
 30
0.0
 11
43.69863141524107
 21
393.8684284770275
 31
0.0
  0
LINE
  5
12F
330
1F
100
AcDbEntity
  8
1
  6
Continuous
 62
     7
370
     9
100
AcDbLine
 10
48.69863141524107
 20
398.3154969478207
 30
0.0
 11
48.69863141524107
 21
393.8684284770275
 31
0.0
  0
LINE
  5
130
330
1F
100
AcDbEntity
  8
1
  6
Continuous
 62
     7
370
     9
100
AcDbLine
 10
25.85164146586524
 20
375.4685069984449
 30
0.0
 11
30.29870993665853
 21
375.4685069984449
 31
0.0
  0
LINE
  5
131
330
1F
100
AcDbEntity
  8
1
  6
Continuous
 62
     7
370
     9
100
AcDbLine
 10
25.85164146586524
 20
380.4685069984449
 30
0.0
 11
30.29870993665853
 21
380.4685069984449
 31
0.0
  0
LINE
  5
132
330
1F
100
AcDbEntity
  8
1
  6
Continuous
 62
     7
370
     9
100
AcDbLine
 10
62.09855289382361
 20
380.4685069984449
 30
0.0
 11
66.54562136461684
 21
380.4685069984449
 31
0.0
  0
LINE
  5
133
330
1F
100
AcDbEntity
  8
1
  6
Continuous
 62
     7
370
     9
100
AcDbLine
 10
62.09855289382361
 20
375.4685069984449
 30
0.0
 11
66.54562136461684
 21
375.4685069984449
 31
0.0
  0
ARC
  5
134
330
1F
100
AcDbEntity
  8
1
  6
Continuous
 62
     7
370
     9
100
AcDbCircle
 10
46.19863141524107
 20
377.9685069984449
 30
0.0
 40
19.25
100
AcDbArc
 50
187.4620876856189
 51
262.5379123143817
  0
CIRCLE
  5
135
330
1F
100
AcDbEntity
  8
1
  6
Continuous
 62
     7
370
     9
100
AcDbCircle
 10
46.19863141524107
 20
377.9685069984449
 30
0.0
 40
20.5
  0
ARC
  5
136
330
1F
100
AcDbEntity
  8
1
  6
Continuous
 62
     7
370
     9
100
AcDbCircle
 10
46.19863141524107
 20
377.9685069984449
 30
0.0
 40
19.25
100
AcDbArc
 50
97.46208768561858
 51
172.5379123143814
  0
ARC
  5
137
330
1F
100
AcDbEntity
  8
1
  6
Continuous
 62
     7
370
     9
100
AcDbCircle
 10
46.19863141524107
 20
377.9685069984449
 30
0.0
 40
19.25
100
AcDbArc
 50
7.462087685618592
 51
82.53791231438142
  0
ARC
  5
138
330
1F
100
AcDbEntity
  8
1
  6
Continuous
 62
     7
370
     9
100
AcDbCircle
 10
46.19863141524107
 20
377.9685069984449
 30
0.0
 40
19.25
100
AcDbArc
 50
277.4620876856189
 51
352.5379123143817
  0
CIRCLE
  5
139
330
1F
100
AcDbEntity
  8
1
  6
Continuous
 62
     7
370
     9
100
AcDbCircle
 10
154.198631415241
 20
377.9685069984449
 30
0.0
 40
20.5
  0
CIRCLE
  5
13A
330
1F
100
AcDbEntity
  8
1
  6
Continuous
 62
     7
370
     9
100
AcDbCircle
 10
154.198631415241
 20
377.9685069984449
 30
0.0
 40
15.1455
  0
CIRCLE
  5
13B
330
1F
100
AcDbEntity
  8
1
  6
Continuous
 62
     7
370
     9
100
AcDbCircle
 10
154.198631415241
 20
377.9685069984449
 30
0.0
 40
16.62450000000001
  0
CIRCLE
  5
13C
330
1F
100
AcDbEntity
  8
1
  6
Continuous
 62
     7
370
     9
100
AcDbCircle
 10
154.198631415241
 20
377.9685069984449
 30
0.0
 40
17.05000000000001
  0
LINE
  5
13D
330
1F
100
AcDbEntity
  8
1
  6
Continuous
 62
     7
370
     9
100
AcDbLine
 10
274.4163907977946
 20
385.4685069984449
 30
0.0
 11
278.7702980415994
 21
385.4685069984449
 31
0.0
  0
LINE
  5
13E
330
1F
100
AcDbEntity
  8
1
  6
Continuous
 62
     7
370
     9
100
AcDbLine
 10
274.4163907977946
 20
380.4685069984449
 30
0.0
 11
278.7702980415994
 21
380.4685069984449
 31
0.0
  0
LINE
  5
13F
330
1F
100
AcDbEntity
  8
1
  6
Continuous
 62
     7
370
     9
100
AcDbLine
 10
302.2935458786936
 20
408.3456620793439
 30
0.0
 11
302.2935458786936
 21
403.9917548355392
 31
0.0
  0
LINE
  5
140
330
1F
100
AcDbEntity
  8
1
  6
Continuous
 62
     7
370
     9
100
AcDbLine
 10
297.2935458786936
 20
408.3456620793439
 30
0.0
 11
297.2935458786936
 21
403.9917548355392
 31
0.0
  0
LINE
  5
141
330
1F
100
AcDbEntity
  8
1
  6
Continuous
 62
     7
370
     9
100
AcDbLine
 10
297.2935458786936
 20
361.9452591613506
 30
0.0
 11
297.2935458786936
 21
357.5913519175459
 31
0.0
  0
LINE
  5
142
330
1F
100
AcDbEntity
  8
1
  6
Continuous
 62
     7
370
     9
100
AcDbLine
 10
302.2935458786936
 20
361.9452591613506
 30
0.0
 11
302.2935458786936
 21
357.5913519175459
 31
0.0
  0
LINE
  5
143
330
1F
100
AcDbEntity
  8
1
  6
Continuous
 62
     7
370
     9
100
AcDbLine
 10
320.8167937157879
 20
385.4685069984449
 30
0.0
 11
325.1707009595926
 21
385.4685069984449
 31
0.0
  0
LINE
  5
144
330
1F
100
AcDbEntity
  8
1
  6
Continuous
 62
     7
370
     9
100
AcDbLine
 10
320.8167937157879
 20
380.4685069984449
 30
0.0
 11
325.1707009595926
 21
380.4685069984449
 31
0.0
  0
CIRCLE
  5
145
330
1F
100
AcDbEntity
  8
1
  6
Continuous
 62
     7
370
     9
100
AcDbCircle
 10
299.7935458786936
 20
382.9685069984449
 30
0.0
 40
25.5
  0
ARC
  5
146
330
1F
100
AcDbEntity
  8
1
  6
Continuous
 62
     7
370
     9
100
AcDbCircle
 10
299.7935458786936
 20
382.9685069984449
 30
0.0
 40
24.0
100
AcDbArc
 50
5.979156796301316
 51
84.02084320369869
  0
ARC
  5
147
330
1F
100
AcDbEntity
  8
1
  6
Continuous
 62
     7
370
     9
100
AcDbCircle
 10
299.7935458786936
 20
382.9685069984449
 30
0.0
 40
24.0
100
AcDbArc
 50
95.97915679630133
 51
174.0208432036987
  0
ARC
  5
148
330
1F
100
AcDbEntity
  8
1
  6
Continuous
 62
     7
370
     9
100
AcDbCircle
 10
299.7935458786936
 20
382.9685069984449
 30
0.0
 40
24.0
100
AcDbArc
 50
185.9791567963016
 51
264.0208432036992
  0
ARC
  5
149
330
1F
100
AcDbEntity
  8
1
  6
Continuous
 62
     7
370
     9
100
AcDbCircle
 10
299.7935458786936
 20
382.9685069984449
 30
0.0
 40
24.0
100
AcDbArc
 50
275.9791567963015
 51
354.0208432036991
  0
LINE
  5
14A
330
1F
100
AcDbEntity
  8
1
  6
Continuous
 62
     7
370
     9
100
AcDbLine
 10
352.4124779829084
 20
358.3615326473166
 30
0.0
 11
348.8767381273069
 21
361.9452591613506
 31
0.0
  0
LINE
  5
14B
330
1F
100
AcDbEntity
  8
1
  6
Continuous
 62
     7
370
     9
100
AcDbLine
 10
354.5480479498464
 20
357.4685069984449
 30
0.0
 11
373.2935458786936
 21
357.4685069984449
 31
0.0
  0
LINE
  5
14C
330
1F
100
AcDbEntity
  8
1
  6
Continuous
 62
     7
370
     9
100
AcDbLine
 10
355.9953046837669
 20
406.9685069984449
 30
0.0
 11
363.7935458786936
 21
406.9685069984449
 31
0.0
  0
LINE
  5
14D
330
1F
100
AcDbEntity
  8
1
  6
Continuous
 62
     7
370
     9
100
AcDbLine
 10
355.9953046837669
 20
358.9685069984449
 30
0.0
 11
363.7935458786936
 21
358.9685069984449
 31
0.0
  0
LINE
  5
14E
330
1F
100
AcDbEntity
  8
1
  6
Continuous
 62
     7
370
     9
100
AcDbLine
 10
348.8767381273069
 20
380.4685069984449
 30
0.0
 11
366.2935458786936
 21
380.4685069984449
 31
0.0
  0
LINE
  5
14F
330
1F
100
AcDbEntity
  8
1
  6
Continuous
 62
     7
370
     9
100
AcDbLine
 10
368.2935458786936
 20
378.4685069984449
 30
0.0
 11
368.2935458786936
 21
359.4685069984449
 31
0.0
  0
LINE
  5
150
330
1F
100
AcDbEntity
  8
1
  6
Continuous
 62
     7
370
     9
100
AcDbLine
 10
366.7935458786936
 20
377.4685069984449
 30
0.0
 11
366.7935458786936
 21
361.9685069984449
 31
0.0
  0
LINE
  5
151
330
1F
100
AcDbEntity
  8
1
  6
Continuous
 62
     7
370
     9
100
AcDbLine
 10
375.2935458786936
 20
406.4685069984449
 30
0.0
 11
375.2935458786936
 21
359.4685069984449
 31
0.0
  0
LINE
  5
152
330
1F
100
AcDbEntity
  8
1
  6
Continuous
 62
     7
370
     9
100
AcDbLine
 10
352.4124781279219
 20
407.5754814965549
 30
0.0
 11
348.8767381273069
 21
403.9917548355392
 31
0.0
  0
LINE
  5
153
330
1F
100
AcDbEntity
  8
1
  6
Continuous
 62
     7
370
     9
100
AcDbLine
 10
354.5480479498464
 20
408.4685069984449
 30
0.0
 11
373.2935458786936
 21
408.4685069984449
 31
0.0
  0
LINE
  5
154
330
1F
100
AcDbEntity
  8
1
  6
Continuous
 62
     7
370
     9
100
AcDbLine
 10
348.8767381273069
 20
380.9685069984449
 30
0.0
 11
348.8767381273069
 21
384.9685069984449
 31
0.0
  0
LINE
  5
155
330
1F
100
AcDbEntity
  8
1
  6
Continuous
 62
     7
370
     9
100
AcDbLine
 10
368.2935458786936
 20
387.4685069984449
 30
0.0
 11
368.2935458786936
 21
406.4685069984449
 31
0.0
  0
LINE
  5
156
330
1F
100
AcDbEntity
  8
1
  6
Continuous
 62
     7
370
     9
100
AcDbLine
 10
348.8767381273069
 20
385.4685069984449
 30
0.0
 11
366.2935458786936
 21
385.4685069984449
 31
0.0
  0
LINE
  5
157
330
1F
100
AcDbEntity
  8
1
  6
Continuous
 62
     7
370
     9
100
AcDbLine
 10
366.7935458786936
 20
388.4685069984449
 30
0.0
 11
366.7935458786936
 21
403.9685069984449
 31
0.0
  0
ARC
  5
158
330
1F
100
AcDbEntity
  8
1
  6
Continuous
 62
     7
370
     9
100
AcDbCircle
 10
363.7935458786936
 20
403.9685069984449
 30
0.0
 40
2.999999999999993
100
AcDbArc
 50
0.0
 51
89.99999999999991
  0
ARC
  5
159
330
1F
100
AcDbEntity
  8
1
  6
Continuous
 62
     7
370
     9
100
AcDbCircle
 10
363.7935458786936
 20
388.4685069984449
 30
0.0
 40
2.999999999999993
100
AcDbArc
 50
269.9999999999998
 51
0.0
  0
ARC
  5
15A
330
1F
100
AcDbEntity
  8
1
  6
Continuous
 62
     7
370
     9
100
AcDbCircle
 10
363.7935458786936
 20
361.9685069984449
 30
0.0
 40
2.999999999999993
100
AcDbArc
 50
269.9999999999998
 51
0.0
  0
ARC
  5
15B
330
1F
100
AcDbEntity
  8
1
  6
Continuous
 62
     7
370
     9
100
AcDbCircle
 10
366.2935458786936
 20
378.4685069984449
 30
0.0
 40
2.0
100
AcDbArc
 50
0.0
 51
89.99999999999991
  0
ARC
  5
15C
330
1F
100
AcDbEntity
  8
1
  6
Continuous
 62
     7
370
     9
100
AcDbCircle
 10
355.9953046837669
 20
396.9685069984449
 30
0.0
 40
10.0
100
AcDbArc
 50
89.99999999999991
 51
174.2608295227332
  0
ARC
  5
15D
330
1F
100
AcDbEntity
  8
1
  6
Continuous
 62
     7
370
     9
100
AcDbCircle
 10
355.9953046837669
 20
368.9685069984449
 30
0.0
 40
10.0
100
AcDbArc
 50
185.739170477267
 51
270.0000000000003
  0
ARC
  5
15E
330
1F
100
AcDbEntity
  8
1
  6
Continuous
 62
     7
370
     9
100
AcDbCircle
 10
366.2935458786936
 20
406.4685069984449
 30
0.0
 40
2.0
100
AcDbArc
 50
0.0
 51
89.99999999999991
  0
ARC
  5
15F
330
1F
100
AcDbEntity
  8
1
  6
Continuous
 62
     7
370
     9
100
AcDbCircle
 10
354.5480479498464
 20
360.4685069984449
 30
0.0
 40
3.0
100
AcDbArc
 50
224.6138205837903
 51
269.9999999999998
  0
ARC
  5
160
330
1F
100
AcDbEntity
  8
1
  6
Continuous
 62
     7
370
     9
100
AcDbCircle
 10
495.2935458786936
 20
382.9685069984449
 30
0.0
 40
150.0
100
AcDbArc
 50
174.2608292546328
 51
185.7391704772671
  0
ARC
  5
161
330
1F
100
AcDbEntity
  8
1
  6
Continuous
 62
     7
370
     9
100
AcDbCircle
 10
366.2935458786936
 20
359.4685069984449
 30
0.0
 40
2.0
100
AcDbArc
 50
269.9999999999998
 51
0.0
  0
ARC
  5
162
330
1F
100
AcDbEntity
  8
1
  6
Continuous
 62
     7
370
     9
100
AcDbCircle
 10
363.7935458786936
 20
377.4685069984449
 30
0.0
 40
2.999999999999993
100
AcDbArc
 50
0.0
 51
89.99999999999991
  0
ARC
  5
163
330
1F
100
AcDbEntity
  8
1
  6
Continuous
 62
     7
370
     9
100
AcDbCircle
 10
354.5480479498464
 20
405.4685069984449
 30
0.0
 40
3.0
100
AcDbArc
 50
89.99999999999991
 51
135.3861794162108
  0
ARC
  5
164
330
1F
100
AcDbEntity
  8
1
  6
Continuous
 62
     7
370
     9
100
AcDbCircle
 10
373.2935458786936
 20
406.4685069984449
 30
0.0
 40
2.0
100
AcDbArc
 50
0.0
 51
89.99999999999991
  0
ARC
  5
165
330
1F
100
AcDbEntity
  8
1
  6
Continuous
 62
     7
370
     9
100
AcDbCircle
 10
366.2935458786936
 20
387.4685069984449
 30
0.0
 40
2.0
100
AcDbArc
 50
269.9999999999998
 51
0.0
  0
ARC
  5
166
330
1F
100
AcDbEntity
  8
1
  6
Continuous
 62
     7
370
     9
100
AcDbCircle
 10
373.2935458786936
 20
359.4685069984449
 30
0.0
 40
2.0
100
AcDbArc
 50
269.9999999999998
 51
0.0
  0
CIRCLE
  5
167
330
1F
100
AcDbEntity
  8
1
  6
Continuous
 62
     7
370
     9
100
AcDbCircle
 10
420.7935458786936
 20
382.9685069984449
 30
0.0
 40
25.5
  0
CIRCLE
  5
168
330
1F
100
AcDbEntity
  8
1
  6
Continuous
 62
     7
370
     9
100
AcDbCircle
 10
420.7935458786936
 20
382.9685069984449
 30
0.0
 40
21.40000000000001
  0
CIRCLE
  5
169
330
1F
100
AcDbEntity
  8
1
  6
Continuous
 62
     7
370
     9
100
AcDbCircle
 10
420.7935458786936
 20
382.9685069984449
 30
0.0
 40
20.95499999999998
  0
CIRCLE
  5
16A
330
1F
100
AcDbEntity
  8
1
  6
Continuous
 62
     7
370
     9
100
AcDbCircle
 10
420.7935458786936
 20
382.9685069984449
 30
0.0
 40
19.476
  0
LINE
  5
16B
330
1F
100
AcDbEntity
  8
1
  6
Continuous
 62
     7
370
     9
100
AcDbLine
 10
590.7901679904094
 20
363.0222698124771
 30
0.0
 11
590.7901679904094
 21
357.5774089049709
 31
0.0
  0
LINE
  5
16C
330
1F
100
AcDbEntity
  8
1
  6
Continuous
 62
     7
370
     9
100
AcDbLine
 10
611.4864051763773
 20
383.7185069984449
 30
0.0
 11
616.9312660838834
 21
383.7185069984449
 31
0.0
  0
LINE
  5
16D
330
1F
100
AcDbEntity
  8
1
  6
Continuous
 62
     7
370
     9
100
AcDbLine
 10
585.7901679904094
 20
363.0222698124771
 30
0.0
 11
585.7901679904094
 21
357.5774089049709
 31
0.0
  0
LINE
  5
16E
330
1F
100
AcDbEntity
  8
1
  6
Continuous
 62
     7
370
     9
100
AcDbLine
 10
611.4864051763773
 20
388.7185069984449
 30
0.0
 11
616.9312660838834
 21
388.7185069984449
 31
0.0
  0
LINE
  5
16F
330
1F
100
AcDbEntity
  8
1
  6
Continuous
 62
     7
370
     9
100
AcDbLine
 10
585.7901679904094
 20
414.8596050919189
 30
0.0
 11
585.7901679904094
 21
409.4147441844127
 31
0.0
  0
LINE
  5
170
330
1F
100
AcDbEntity
  8
1
  6
Continuous
 62
     7
370
     9
100
AcDbLine
 10
559.6490698969353
 20
388.7185069984449
 30
0.0
 11
565.0939308044416
 21
388.7185069984449
 31
0.0
  0
LINE
  5
171
330
1F
100
AcDbEntity
  8
1
  6
Continuous
 62
     7
370
     9
100
AcDbLine
 10
559.6490698969353
 20
383.7185069984449
 30
0.0
 11
565.0939308044416
 21
383.7185069984449
 31
0.0
  0
LINE
  5
172
330
1F
100
AcDbEntity
  8
1
  6
Continuous
 62
     7
370
     9
100
AcDbLine
 10
590.7901679904094
 20
414.8596050919189
 30
0.0
 11
590.7901679904094
 21
409.4147441844127
 31
0.0
  0
ARC
  5
173
330
1F
100
AcDbEntity
  8
1
  6
Continuous
 62
     7
370
     9
100
AcDbCircle
 10
588.2901679904094
 20
386.2185069984449
 30
0.0
 40
27.25
100
AcDbArc
 50
185.2638954118538
 51
264.7361045881468
  0
ARC
  5
174
330
1F
100
AcDbEntity
  8
1
  6
Continuous
 62
     7
370
     9
100
AcDbCircle
 10
588.2901679904094
 20
386.2185069984449
 30
0.0
 40
27.25
100
AcDbArc
 50
5.2638954118534
 51
84.7361045881466
  0
ARC
  5
175
330
1F
100
AcDbEntity
  8
1
  6
Continuous
 62
     7
370
     9
100
AcDbCircle
 10
588.2901679904094
 20
386.2185069984449
 30
0.0
 40
27.25
100
AcDbArc
 50
275.2638954118535
 51
354.7361045881469
  0
CIRCLE
  5
176
330
1F
100
AcDbEntity
  8
1
  6
Continuous
 62
     7
370
     9
100
AcDbCircle
 10
588.2901679904094
 20
386.2185069984449
 30
0.0
 40
28.75
  0
ARC
  5
177
330
1F
100
AcDbEntity
  8
1
  6
Continuous
 62
     7
370
     9
100
AcDbCircle
 10
588.2901679904094
 20
386.2185069984449
 30
0.0
 40
27.25
100
AcDbArc
 50
95.26389541185341
 51
174.7361045881466
  0
LINE
  5
178
330
1F
100
AcDbEntity
  8
1
  6
Continuous
 62
     7
370
     9
100
AcDbLine
 10
639.9327275018334
 20
386.2185069984449
 30
0.0
 11
639.9327275018334
 21
384.2185069984449
 31
0.0
  0
LINE
  5
179
330
1F
100
AcDbEntity
  8
1
  6
Continuous
 62
     7
370
     9
100
AcDbLine
 10
643.1407459190507
 20
358.6846358426546
 30
0.0
 11
639.9327275018334
 21
363.0222698124771
 31
0.0
  0
LINE
  5
17A
330
1F
100
AcDbEntity
  8
1
  6
Continuous
 62
     7
370
     9
100
AcDbLine
 10
667.0401679904094
 20
359.4685069984449
 30
0.0
 11
667.0401679904094
 21
412.9685069984449
 31
0.0
  0
LINE
  5
17B
330
1F
100
AcDbEntity
  8
1
  6
Continuous
 62
     7
370
     9
100
AcDbLine
 10
645.5527582945454
 20
357.4685069984449
 30
0.0
 11
665.0401679904094
 21
357.4685069984449
 31
0.0
  0
LINE
  5
17C
330
1F
100
AcDbEntity
  8
1
  6
Continuous
 62
     7
370
     9
100
AcDbLine
 10
639.9327275018334
 20
383.7185069984449
 30
0.0
 11
657.0401679904094
 21
383.7185069984449
 31
0.0
  0
LINE
  5
17D
330
1F
100
AcDbEntity
  8
1
  6
Continuous
 62
     7
370
     9
100
AcDbLine
 10
659.0401679904094
 20
381.7185069984449
 30
0.0
 11
659.0401679904094
 21
359.4685069984449
 31
0.0
  0
LINE
  5
17E
330
1F
100
AcDbEntity
  8
1
  6
Continuous
 62
     7
370
     9
100
AcDbLine
 10
639.9327275018334
 20
386.2185069984449
 30
0.0
 11
639.9327275018334
 21
388.2185069984449
 31
0.0
  0
LINE
  5
17F
330
1F
100
AcDbEntity
  8
1
  6
Continuous
 62
     7
370
     9
100
AcDbLine
 10
647.9727687534821
 20
358.9685069984449
 30
0.0
 11
654.5401679904094
 21
358.9685069984449
 31
0.0
  0
LINE
  5
180
330
1F
100
AcDbEntity
  8
1
  6
Continuous
 62
     7
370
     9
100
AcDbLine
 10
657.5401679904094
 20
380.7185069984449
 30
0.0
 11
657.5401679904094
 21
361.9685069984449
 31
0.0
  0
LINE
  5
181
330
1F
100
AcDbEntity
  8
1
  6
Continuous
 62
     7
370
     9
100
AcDbLine
 10
643.1407459190507
 20
413.7523781542353
 30
0.0
 11
639.9327275018334
 21
409.4147441844127
 31
0.0
  0
LINE
  5
182
330
1F
100
AcDbEntity
  8
1
  6
Continuous
 62
     7
370
     9
100
AcDbLine
 10
645.5527582945454
 20
414.9685069984449
 30
0.0
 11
665.0401679904094
 21
414.9685069984449
 31
0.0
  0
LINE
  5
183
330
1F
100
AcDbEntity
  8
1
  6
Continuous
 62
     7
370
     9
100
AcDbLine
 10
657.5401679904094
 20
391.7185069984449
 30
0.0
 11
657.5401679904094
 21
410.4685069984449
 31
0.0
  0
LINE
  5
184
330
1F
100
AcDbEntity
  8
1
  6
Continuous
 62
     7
370
     9
100
AcDbLine
 10
647.9727687534821
 20
413.4685069984449
 30
0.0
 11
654.5401679904094
 21
413.4685069984449
 31
0.0
  0
LINE
  5
185
330
1F
100
AcDbEntity
  8
1
  6
Continuous
 62
     7
370
     9
100
AcDbLine
 10
659.0401679904094
 20
390.7185069984449
 30
0.0
 11
659.0401679904094
 21
412.9685069984449
 31
0.0
  0
LINE
  5
186
330
1F
100
AcDbEntity
  8
1
  6
Continuous
 62
     7
370
     9
100
AcDbLine
 10
639.9327275018334
 20
388.7185069984449
 30
0.0
 11
657.0401679904094
 21
388.7185069984449
 31
0.0
  0
ARC
  5
187
330
1F
100
AcDbEntity
  8
1
  6
Continuous
 62
     7
370
     9
100
AcDbCircle
 10
645.5527582945454
 20
411.9685069984449
 30
0.0
 40
3.0
100
AcDbArc
 50
89.99999999999991
 51
143.5141875014505
  0
ARC
  5
188
330
1F
100
AcDbEntity
  8
1
  6
Continuous
 62
     7
370
     9
100
AcDbCircle
 10
657.0401679904094
 20
390.7185069984449
 30
0.0
 40
1.999999999999993
100
AcDbArc
 50
269.9999999999998
 51
0.0
  0
ARC
  5
189
330
1F
100
AcDbEntity
  8
1
  6
Continuous
 62
     7
370
     9
100
AcDbCircle
 10
654.5401679904094
 20
361.9685069984449
 30
0.0
 40
3.0
100
AcDbArc
 50
269.9999999999998
 51
0.0
  0
ARC
  5
18A
330
1F
100
AcDbEntity
  8
1
  6
Continuous
 62
     7
370
     9
100
AcDbCircle
 10
657.0401679904094
 20
381.7185069984449
 30
0.0
 40
1.999999999999993
100
AcDbArc
 50
0.0
 51
89.99999999999991
  0
ARC
  5
18B
330
1F
100
AcDbEntity
  8
1
  6
Continuous
 62
     7
370
     9
100
AcDbCircle
 10
657.0401679904094
 20
359.4685069984449
 30
0.0
 40
1.999999999999993
100
AcDbArc
 50
269.9999999999998
 51
0.0
  0
ARC
  5
18C
330
1F
100
AcDbEntity
  8
1
  6
Continuous
 62
     7
370
     9
100
AcDbCircle
 10
807.0401679904094
 20
386.2185069984449
 30
0.0
 40
170.0
100
AcDbArc
 50
173.8107689219101
 51
186.1892310780902
  0
ARC
  5
18D
330
1F
100
AcDbEntity
  8
1
  6
Continuous
 62
     7
370
     9
100
AcDbCircle
 10
654.5401679904094
 20
380.7185069984449
 30
0.0
 40
3.0
100
AcDbArc
 50
0.0
 51
89.99999999999991
  0
ARC
  5
18E
330
1F
100
AcDbEntity
  8
1
  6
Continuous
 62
     7
370
     9
100
AcDbCircle
 10
654.5401679904094
 20
410.4685069984449
 30
0.0
 40
3.0
100
AcDbArc
 50
0.0
 51
89.99999999999991
  0
ARC
  5
18F
330
1F
100
AcDbEntity
  8
1
  6
Continuous
 62
     7
370
     9
100
AcDbCircle
 10
647.9727687534821
 20
368.9685069984449
 30
0.0
 40
10.0
100
AcDbArc
 50
186.1892310780902
 51
269.9999999999998
  0
ARC
  5
190
330
1F
100
AcDbEntity
  8
1
  6
Continuous
 62
     7
370
     9
100
AcDbCircle
 10
645.5527582945454
 20
360.4685069984449
 30
0.0
 40
3.0
100
AcDbArc
 50
216.48581249855
 51
269.9999999999998
  0
ARC
  5
191
330
1F
100
AcDbEntity
  8
1
  6
Continuous
 62
     7
370
     9
100
AcDbCircle
 10
657.0401679904094
 20
412.9685069984449
 30
0.0
 40
1.999999999999993
100
AcDbArc
 50
0.0
 51
89.99999999999991
  0
ARC
  5
192
330
1F
100
AcDbEntity
  8
1
  6
Continuous
 62
     7
370
     9
100
AcDbCircle
 10
665.0401679904094
 20
412.9685069984449
 30
0.0
 40
2.0
100
AcDbArc
 50
0.0
 51
89.99999999999991
  0
ARC
  5
193
330
1F
100
AcDbEntity
  8
1
  6
Continuous
 62
     7
370
     9
100
AcDbCircle
 10
665.0401679904094
 20
359.4685069984449
 30
0.0
 40
2.0
100
AcDbArc
 50
269.9999999999998
 51
0.0
  0
ARC
  5
194
330
1F
100
AcDbEntity
  8
1
  6
Continuous
 62
     7
370
     9
100
AcDbCircle
 10
647.9727687534821
 20
403.4685069984449
 30
0.0
 40
10.0
100
AcDbArc
 50
89.99999999999991
 51
173.8107689219101
  0
ARC
  5
195
330
1F
100
AcDbEntity
  8
1
  6
Continuous
 62
     7
370
     9
100
AcDbCircle
 10
654.5401679904094
 20
391.7185069984449
 30
0.0
 40
3.0
100
AcDbArc
 50
269.9999999999998
 51
0.0
  0
CIRCLE
  5
196
330
1F
100
AcDbEntity
  8
1
  6
Continuous
 62
     7
370
     9
100
AcDbCircle
 10
715.7901679904094
 20
386.2185069984449
 30
0.0
 40
28.75
  0
CIRCLE
  5
197
330
1F
100
AcDbEntity
  8
1
  6
Continuous
 62
     7
370
     9
100
AcDbCircle
 10
715.7901679904094
 20
386.2185069984449
 30
0.0
 40
24.34999999999999
  0
CIRCLE
  5
198
330
1F
100
AcDbEntity
  8
1
  6
Continuous
 62
     7
370
     9
100
AcDbCircle
 10
715.7901679904094
 20
386.2185069984449
 30
0.0
 40
23.9015
  0
CIRCLE
  5
199
330
1F
100
AcDbEntity
  8
1
  6
Continuous
 62
     7
370
     9
100
AcDbCircle
 10
715.7901679904094
 20
386.2185069984449
 30
0.0
 40
22.42250000000001
  0
LINE
  5
19A
330
1F
100
AcDbEntity
  8
1
  6
Continuous
 62
     7
370
     9
100
AcDbLine
 10
883.0277592294118
 20
389.9685069984449
 30
0.0
 11
887.140652567488
 21
389.9685069984449
 31
0.0
  0
LINE
  5
19B
330
1F
100
AcDbEntity
  8
1
  6
Continuous
 62
     7
370
     9
100
AcDbLine
 10
915.4383593388341
 20
427.3791071078673
 30
0.0
 11
915.4383593388341
 21
423.266213769791
 31
0.0
  0
LINE
  5
19C
330
1F
100
AcDbEntity
  8
1
  6
Continuous
 62
     7
370
     9
100
AcDbLine
 10
920.4383593388341
 20
427.3791071078673
 30
0.0
 11
920.4383593388341
 21
423.266213769791
 31
0.0
  0
LINE
  5
19D
330
1F
100
AcDbEntity
  8
1
  6
Continuous
 62
     7
370
     9
100
AcDbLine
 10
883.0277592294118
 20
394.9685069984449
 30
0.0
 11
887.140652567488
 21
394.9685069984449
 31
0.0
  0
LINE
  5
19E
330
1F
100
AcDbEntity
  8
1
  6
Continuous
 62
     7
370
     9
100
AcDbLine
 10
948.7360661101801
 20
389.9685069984449
 30
0.0
 11
952.8489594482564
 21
389.9685069984449
 31
0.0
  0
LINE
  5
19F
330
1F
100
AcDbEntity
  8
1
  6
Continuous
 62
     7
370
     9
100
AcDbLine
 10
948.7360661101801
 20
394.9685069984449
 30
0.0
 11
952.8489594482564
 21
394.9685069984449
 31
0.0
  0
LINE
  5
1A0
330
1F
100
AcDbEntity
  8
1
  6
Continuous
 62
     7
370
     9
100
AcDbLine
 10
920.4383593388341
 20
361.6708002270989
 30
0.0
 11
920.4383593388341
 21
357.5579068890225
 31
0.0
  0
LINE
  5
1A1
330
1F
100
AcDbEntity
  8
1
  6
Continuous
 62
     7
370
     9
100
AcDbLine
 10
915.4383593388341
 20
361.6708002270989
 30
0.0
 11
915.4383593388341
 21
357.5579068890225
 31
0.0
  0
CIRCLE
  5
1A2
330
1F
100
AcDbEntity
  8
1
  6
Continuous
 62
     7
370
     9
100
AcDbCircle
 10
917.9383593388341
 20
392.4685069984449
 30
0.0
 40
35.0
  0
ARC
  5
1A3
330
1F
100
AcDbEntity
  8
1
  6
Continuous
 62
     7
370
     9
100
AcDbCircle
 10
917.9383593388341
 20
392.4685069984449
 30
0.0
 40
33.5
100
AcDbArc
 50
4.279783200281892
 51
85.7202167997181
  0
ARC
  5
1A4
330
1F
100
AcDbEntity
  8
1
  6
Continuous
 62
     7
370
     9
100
AcDbCircle
 10
917.9383593388341
 20
392.4685069984449
 30
0.0
 40
33.5
100
AcDbArc
 50
274.2797832002823
 51
355.7202167997183
  0
ARC
  5
1A5
330
1F
100
AcDbEntity
  8
1
  6
Continuous
 62
     7
370
     9
100
AcDbCircle
 10
917.9383593388341
 20
392.4685069984449
 30
0.0
 40
33.5
100
AcDbArc
 50
184.2797832002821
 51
265.7202167997183
  0
ARC
  5
1A6
330
1F
100
AcDbEntity
  8
1
  6
Continuous
 62
     7
370
     9
100
AcDbCircle
 10
917.9383593388341
 20
392.4685069984449
 30
0.0
 40
33.5
100
AcDbArc
 50
94.27978320028188
 51
175.7202167997181
  0
LINE
  5
1A7
330
1F
100
AcDbEntity
  8
1
  6
Continuous
 62
     7
370
     9
100
AcDbLine
 10
998.938359338834
 20
387.9685069984449
 30
0.0
 11
998.938359338834
 21
359.4685069984449
 31
0.0
  0
LINE
  5
1A8
330
1F
100
AcDbEntity
  8
1
  6
Continuous
 62
     7
370
     9
100
AcDbLine
 10
984.2897649415241
 20
358.9685069984449
 30
0.0
 11
994.438359338834
 21
358.9685069984449
 31
0.0
  0
LINE
  5
1A9
330
1F
100
AcDbEntity
  8
1
  6
Continuous
 62
     7
370
     9
100
AcDbLine
 10
977.4528448835264
 20
389.9685069984449
 30
0.0
 11
996.938359338834
 21
389.9685069984449
 31
0.0
  0
LINE
  5
1AA
330
1F
100
AcDbEntity
  8
1
  6
Continuous
 62
     7
370
     9
100
AcDbLine
 10
984.2897649415241
 20
425.9685069984449
 30
0.0
 11
994.438359338834
 21
425.9685069984449
 31
0.0
  0
LINE
  5
1AB
330
1F
100
AcDbEntity
  8
1
  6
Continuous
 62
     7
370
     9
100
AcDbLine
 10
981.0730335740617
 20
358.2791949670411
 30
0.0
 11
977.4528448835264
 21
361.6708002270989
 31
0.0
  0
LINE
  5
1AC
330
1F
100
AcDbEntity
  8
1
  6
Continuous
 62
     7
370
     9
100
AcDbLine
 10
981.0730338559591
 20
426.6578192939468
 30
0.0
 11
977.4528448835264
 21
423.266213769791
 31
0.0
  0
LINE
  5
1AD
330
1F
100
AcDbEntity
  8
1
  6
Continuous
 62
     7
370
     9
100
AcDbLine
 10
1007.938359338834
 20
425.4685069984449
 30
0.0
 11
1007.938359338834
 21
359.4685069984449
 31
0.0
  0
LINE
  5
1AE
330
1F
100
AcDbEntity
  8
1
  6
Continuous
 62
     7
370
     9
100
AcDbLine
 10
977.4528448835264
 20
394.9685069984449
 30
0.0
 11
996.938359338834
 21
394.9685069984449
 31
0.0
  0
LINE
  5
1AF
330
1F
100
AcDbEntity
  8
1
  6
Continuous
 62
     7
370
     9
100
AcDbLine
 10
997.438359338834
 20
386.9685069984449
 30
0.0
 11
997.438359338834
 21
361.9685069984449
 31
0.0
  0
LINE
  5
1B0
330
1F
100
AcDbEntity
  8
1
  6
Continuous
 62
     7
370
     9
100
AcDbLine
 10
998.938359338834
 20
396.9685069984449
 30
0.0
 11
998.938359338834
 21
425.4685069984449
 31
0.0
  0
LINE
  5
1B1
330
1F
100
AcDbEntity
  8
1
  6
Continuous
 62
     7
370
     9
100
AcDbLine
 10
977.4528448835264
 20
390.4685069984449
 30
0.0
 11
977.4528448835264
 21
394.4685069984449
 31
0.0
  0
LINE
  5
1B2
330
1F
100
AcDbEntity
  8
1
  6
Continuous
 62
     7
370
     9
100
AcDbLine
 10
983.124109591461
 20
357.4685069984449
 30
0.0
 11
1005.938359338834
 21
357.4685069984449
 31
0.0
  0
LINE
  5
1B3
330
1F
100
AcDbEntity
  8
1
  6
Continuous
 62
     7
370
     9
100
AcDbLine
 10
983.124109591461
 20
427.4685069984449
 30
0.0
 11
1005.938359338834
 21
427.4685069984449
 31
0.0
  0
LINE
  5
1B4
330
1F
100
AcDbEntity
  8
1
  6
Continuous
 62
     7
370
     9
100
AcDbLine
 10
997.438359338834
 20
397.9685069984449
 30
0.0
 11
997.438359338834
 21
422.9685069984449
 31
0.0
  0
ARC
  5
1B5
330
1F
100
AcDbEntity
  8
1
  6
Continuous
 62
     7
370
     9
100
AcDbCircle
 10
983.124109591461
 20
424.4685069984449
 30
0.0
 40
3.0
100
AcDbArc
 50
89.99999999999991
 51
133.1328274453375
  0
ARC
  5
1B6
330
1F
100
AcDbEntity
  8
1
  6
Continuous
 62
     7
370
     9
100
AcDbCircle
 10
983.124109591461
 20
360.4685069984449
 30
0.0
 40
3.0
100
AcDbArc
 50
226.8671725546621
 51
269.9999999999998
  0
ARC
  5
1B7
330
1F
100
AcDbEntity
  8
1
  6
Continuous
 62
     7
370
     9
100
AcDbCircle
 10
994.438359338834
 20
361.9685069984449
 30
0.0
 40
2.999999999999993
100
AcDbArc
 50
269.9999999999998
 51
0.0
  0
ARC
  5
1B8
330
1F
100
AcDbEntity
  8
1
  6
Continuous
 62
     7
370
     9
100
AcDbCircle
 10
996.938359338834
 20
359.4685069984449
 30
0.0
 40
2.0
100
AcDbArc
 50
269.9999999999998
 51
0.0
  0
ARC
  5
1B9
330
1F
100
AcDbEntity
  8
1
  6
Continuous
 62
     7
370
     9
100
AcDbCircle
 10
994.438359338834
 20
386.9685069984449
 30
0.0
 40
2.999999999999993
100
AcDbArc
 50
0.0
 51
89.99999999999991
  0
ARC
  5
1BA
330
1F
100
AcDbEntity
  8
1
  6
Continuous
 62
     7
370
     9
100
AcDbCircle
 10
996.938359338834
 20
387.9685069984449
 30
0.0
 40
2.0
100
AcDbArc
 50
0.0
 51
89.99999999999991
  0
ARC
  5
1BB
330
1F
100
AcDbEntity
  8
1
  6
Continuous
 62
     7
370
     9
100
AcDbCircle
 10
984.2897649415241
 20
368.9685069984449
 30
0.0
 40
10.0
100
AcDbArc
 50
186.5825236270051
 51
269.9999999999998
  0
ARC
  5
1BC
330
1F
100
AcDbEntity
  8
1
  6
Continuous
 62
     7
370
     9
100
AcDbCircle
 10
1187.938359338834
 20
392.4685069984449
 30
0.0
 40
215.0
100
AcDbArc
 50
173.4174763729951
 51
186.5825236270052
  0
ARC
  5
1BD
330
1F
100
AcDbEntity
  8
1
  6
Continuous
 62
     7
370
     9
100
AcDbCircle
 10
996.938359338834
 20
396.9685069984449
 30
0.0
 40
2.0
100
AcDbArc
 50
269.9999999999998
 51
0.0
  0
ARC
  5
1BE
330
1F
100
AcDbEntity
  8
1
  6
Continuous
 62
     7
370
     9
100
AcDbCircle
 10
994.438359338834
 20
397.9685069984449
 30
0.0
 40
2.999999999999993
100
AcDbArc
 50
269.9999999999998
 51
0.0
  0
ARC
  5
1BF
330
1F
100
AcDbEntity
  8
1
  6
Continuous
 62
     7
370
     9
100
AcDbCircle
 10
996.938359338834
 20
425.4685069984449
 30
0.0
 40
2.0
100
AcDbArc
 50
0.0
 51
89.99999999999991
  0
ARC
  5
1C0
330
1F
100
AcDbEntity
  8
1
  6
Continuous
 62
     7
370
     9
100
AcDbCircle
 10
994.438359338834
 20
422.9685069984449
 30
0.0
 40
2.999999999999993
100
AcDbArc
 50
0.0
 51
89.99999999999991
  0
ARC
  5
1C1
330
1F
100
AcDbEntity
  8
1
  6
Continuous
 62
     7
370
     9
100
AcDbCircle
 10
984.2897649415241
 20
415.9685069984449
 30
0.0
 40
10.0
100
AcDbArc
 50
89.99999999999991
 51
173.4174763729952
  0
ARC
  5
1C2
330
1F
100
AcDbEntity
  8
1
  6
Continuous
 62
     7
370
     9
100
AcDbCircle
 10
1005.938359338834
 20
359.4685069984449
 30
0.0
 40
2.0
100
AcDbArc
 50
269.9999999999998
 51
0.0
  0
ARC
  5
1C3
330
1F
100
AcDbEntity
  8
1
  6
Continuous
 62
     7
370
     9
100
AcDbCircle
 10
1005.938359338834
 20
425.4685069984449
 30
0.0
 40
2.0
100
AcDbArc
 50
0.0
 51
89.99999999999991
  0
CIRCLE
  5
1C4
330
1F
100
AcDbEntity
  8
1
  6
Continuous
 62
     7
370
     9
100
AcDbCircle
 10
1062.938359338834
 20
392.4685069984449
 30
0.0
 40
35.0
  0
CIRCLE
  5
1C5
330
1F
100
AcDbEntity
  8
1
  6
Continuous
 62
     7
370
     9
100
AcDbCircle
 10
1062.938359338834
 20
392.4685069984449
 30
0.0
 40
30.25
  0
CIRCLE
  5
1C6
330
1F
100
AcDbEntity
  8
1
  6
Continuous
 62
     7
370
     9
100
AcDbCircle
 10
1062.938359338834
 20
392.4685069984449
 30
0.0
 40
29.80699999999999
  0
CIRCLE
  5
1C7
330
1F
100
AcDbEntity
  8
1
  6
Continuous
 62
     7
370
     9
100
AcDbCircle
 10
1062.938359338834
 20
392.4685069984449
 30
0.0
 40
28.328
  0
LINE
  5
1C8
330
1F
100
AcDbEntity
  8
1
  6
Continuous
 62
     7
370
     9
100
AcDbLine
 10
72.94687882308179
 20
614.6031670323902
 30
0.0
 11
72.94687882308179
 21
610.6550779826179
 31
0.0
  0
LINE
  5
1C9
330
1F
100
AcDbEntity
  8
1
  6
Continuous
 62
     7
370
     9
100
AcDbLine
 10
110.1469777315938
 20
651.8032659409022
 30
0.0
 11
114.0950667813661
 21
651.8032659409022
 31
0.0
  0
LINE
  5
1CA
330
1F
100
AcDbEntity
  8
1
  6
Continuous
 62
     7
370
     9
100
AcDbLine
 10
66.94687882308179
 20
698.9514538991865
 30
0.0
 11
66.94687882308179
 21
695.0033648494142
 31
0.0
  0
LINE
  5
1CB
330
1F
100
AcDbEntity
  8
1
  6
Continuous
 62
     7
370
     9
100
AcDbLine
 10
110.1469777315938
 20
657.8032659409022
 30
0.0
 11
114.0950667813661
 21
657.8032659409022
 31
0.0
  0
LINE
  5
1CC
330
1F
100
AcDbEntity
  8
1
  6
Continuous
 62
     7
370
     9
100
AcDbLine
 10
25.79869086479752
 20
651.8032659409022
 30
0.0
 11
29.74677991456983
 21
651.8032659409022
 31
0.0
  0
LINE
  5
1CD
330
1F
100
AcDbEntity
  8
1
  6
Continuous
 62
     7
370
     9
100
AcDbLine
 10
25.79869086479752
 20
657.8032659409022
 30
0.0
 11
29.74677991456983
 21
657.8032659409022
 31
0.0
  0
LINE
  5
1CE
330
1F
100
AcDbEntity
  8
1
  6
Continuous
 62
     7
370
     9
100
AcDbLine
 10
72.94687882308179
 20
698.9514538991865
 30
0.0
 11
72.94687882308179
 21
695.0033648494142
 31
0.0
  0
LINE
  5
1CF
330
1F
100
AcDbEntity
  8
1
  6
Continuous
 62
     7
370
     9
100
AcDbLine
 10
66.94687882308179
 20
614.6031670323902
 30
0.0
 11
66.94687882308179
 21
610.6550779826179
 31
0.0
  0
ARC
  5
1D0
330
1F
100
AcDbEntity
  8
1
  6
Continuous
 62
     7
370
     9
100
AcDbCircle
 10
69.94687882308179
 20
654.8032659409022
 30
0.0
 40
41.75
100
AcDbArc
 50
94.12061321395001
 51
175.8793867860499
  0
ARC
  5
1D1
330
1F
100
AcDbEntity
  8
1
  6
Continuous
 62
     7
370
     9
100
AcDbCircle
 10
69.94687882308179
 20
654.8032659409022
 30
0.0
 40
41.75
100
AcDbArc
 50
184.1206132139505
 51
265.8793867860503
  0
ARC
  5
1D2
330
1F
100
AcDbEntity
  8
1
  6
Continuous
 62
     7
370
     9
100
AcDbCircle
 10
69.94687882308179
 20
654.8032659409022
 30
0.0
 40
41.75
100
AcDbArc
 50
274.1206132139504
 51
355.8793867860503
  0
CIRCLE
  5
1D3
330
1F
100
AcDbEntity
  8
1
  6
Continuous
 62
     7
370
     9
100
AcDbCircle
 10
69.94687882308179
 20
654.8032659409022
 30
0.0
 40
44.25
  0
ARC
  5
1D4
330
1F
100
AcDbEntity
  8
1
  6
Continuous
 62
     7
370
     9
100
AcDbCircle
 10
69.94687882308179
 20
654.8032659409022
 30
0.0
 40
41.75
100
AcDbArc
 50
4.120613213950072
 51
85.87938678604993
  0
LINE
  5
1D5
330
1F
100
AcDbEntity
  8
1
  6
Continuous
 62
     7
370
     9
100
AcDbLine
 10
141.3988801987516
 20
652.3032659409022
 30
0.0
 11
141.3988801987516
 21
657.3032659409022
 31
0.0
  0
LINE
  5
1D6
330
1F
100
AcDbEntity
  8
1
  6
Continuous
 62
     7
370
     9
100
AcDbLine
 10
147.5266284420428
 20
698.6887840244987
 30
0.0
 11
141.365429437781
 21
695.3383262195573
 31
0.0
  0
LINE
  5
1D7
330
1F
100
AcDbEntity
  8
1
  6
Continuous
 62
     7
370
     9
100
AcDbLine
 10
164.1968788230818
 20
660.8032659409022
 30
0.0
 11
164.1968788230818
 21
693.5532659409022
 31
0.0
  0
LINE
  5
1D8
330
1F
100
AcDbEntity
  8
1
  6
Continuous
 62
     7
370
     9
100
AcDbLine
 10
164.1968788230818
 20
648.8032659409022
 30
0.0
 11
164.1968788230818
 21
616.0532659409022
 31
0.0
  0
LINE
  5
1D9
330
1F
100
AcDbEntity
  8
1
  6
Continuous
 62
     7
370
     9
100
AcDbLine
 10
166.6968788230818
 20
649.8032659409022
 30
0.0
 11
166.6968788230818
 21
612.5532659409022
 31
0.0
  0
LINE
  5
1DA
330
1F
100
AcDbEntity
  8
1
  6
Continuous
 62
     7
370
     9
100
AcDbLine
 10
141.3988801987516
 20
651.8032659409022
 30
0.0
 11
164.6968788230818
 21
651.8032659409022
 31
0.0
  0
LINE
  5
1DB
330
1F
100
AcDbEntity
  8
1
  6
Continuous
 62
     7
370
     9
100
AcDbLine
 10
176.1968788230818
 20
697.0532659409022
 30
0.0
 11
176.1968788230818
 21
612.5532659409022
 31
0.0
  0
LINE
  5
1DC
330
1F
100
AcDbEntity
  8
1
  6
Continuous
 62
     7
370
     9
100
AcDbLine
 10
141.3988801987516
 20
657.8032659409022
 30
0.0
 11
164.6968788230818
 21
657.8032659409022
 31
0.0
  0
LINE
  5
1DD
330
1F
100
AcDbEntity
  8
1
  6
Continuous
 62
     7
370
     9
100
AcDbLine
 10
146.1427420610448
 20
696.5532659409022
 30
0.0
 11
161.1968788230818
 21
696.5532659409022
 31
0.0
  0
LINE
  5
1DE
330
1F
100
AcDbEntity
  8
1
  6
Continuous
 62
     7
370
     9
100
AcDbLine
 10
147.5266284420428
 20
610.9177478573057
 30
0.0
 11
141.365429437781
 21
614.268205662247
 31
0.0
  0
LINE
  5
1DF
330
1F
100
AcDbEntity
  8
1
  6
Continuous
 62
     7
370
     9
100
AcDbLine
 10
146.1427420610448
 20
613.0532659409022
 30
0.0
 11
161.1968788230818
 21
613.0532659409022
 31
0.0
  0
LINE
  5
1E0
330
1F
100
AcDbEntity
  8
1
  6
Continuous
 62
     7
370
     9
100
AcDbLine
 10
149.0227751608593
 20
610.5532659409022
 30
0.0
 11
174.1968788230818
 21
610.5532659409022
 31
0.0
  0
LINE
  5
1E1
330
1F
100
AcDbEntity
  8
1
  6
Continuous
 62
     7
370
     9
100
AcDbLine
 10
148.9598222290219
 20
699.0532659409022
 30
0.0
 11
174.1968788230818
 21
699.0532659409022
 31
0.0
  0
LINE
  5
1E2
330
1F
100
AcDbEntity
  8
1
  6
Continuous
 62
     7
370
     9
100
AcDbLine
 10
166.6968788230818
 20
659.8032659409022
 30
0.0
 11
166.6968788230818
 21
697.0532659409022
 31
0.0
  0
ARC
  5
1E3
330
1F
100
AcDbEntity
  8
1
  6
Continuous
 62
     7
370
     9
100
AcDbCircle
 10
148.9598222290219
 20
696.0532659409022
 30
0.0
 40
3.0
100
AcDbArc
 50
89.99999999999991
 51
118.537331723769
  0
ARC
  5
1E4
330
1F
100
AcDbEntity
  8
1
  6
Continuous
 62
     7
370
     9
100
AcDbCircle
 10
164.6968788230818
 20
659.8032659409022
 30
0.0
 40
2.0
100
AcDbArc
 50
269.9999999999998
 51
0.0
  0
ARC
  5
1E5
330
1F
100
AcDbEntity
  8
1
  6
Continuous
 62
     7
370
     9
100
AcDbCircle
 10
161.1968788230818
 20
693.5532659409022
 30
0.0
 40
3.0
100
AcDbArc
 50
0.0
 51
89.99999999999991
  0
ARC
  5
1E6
330
1F
100
AcDbEntity
  8
1
  6
Continuous
 62
     7
370
     9
100
AcDbCircle
 10
161.1968788230818
 20
616.0532659409022
 30
0.0
 40
3.0
100
AcDbArc
 50
269.9999999999998
 51
0.0
  0
ARC
  5
1E7
330
1F
100
AcDbEntity
  8
1
  6
Continuous
 62
     7
370
     9
100
AcDbCircle
 10
164.6968788230818
 20
649.8032659409022
 30
0.0
 40
2.0
100
AcDbArc
 50
0.0
 51
89.99999999999991
  0
ARC
  5
1E8
330
1F
100
AcDbEntity
  8
1
  6
Continuous
 62
     7
370
     9
100
AcDbCircle
 10
148.9598222290219
 20
613.5532659409022
 30
0.0
 40
3.0
100
AcDbArc
 50
241.4626682762326
 51
270.0000000000018
  0
ARC
  5
1E9
330
1F
100
AcDbEntity
  8
1
  6
Continuous
 62
     7
370
     9
100
AcDbCircle
 10
146.1427420610448
 20
623.0532659409022
 30
0.0
 40
10.0
100
AcDbArc
 50
187.0142032061655
 51
270.0000000000009
  0
ARC
  5
1EA
330
1F
100
AcDbEntity
  8
1
  6
Continuous
 62
     7
370
     9
100
AcDbCircle
 10
164.6968788230818
 20
612.5532659409022
 30
0.0
 40
2.0
100
AcDbArc
 50
269.9999999999998
 51
0.0
  0
ARC
  5
1EB
330
1F
100
AcDbEntity
  8
1
  6
Continuous
 62
     7
370
     9
100
AcDbCircle
 10
161.1968788230818
 20
660.8032659409022
 30
0.0
 40
3.0
100
AcDbArc
 50
269.9999999999998
 51
0.0
  0
ARC
  5
1EC
330
1F
100
AcDbEntity
  8
1
  6
Continuous
 62
     7
370
     9
100
AcDbCircle
 10
164.6968788230818
 20
697.0532659409022
 30
0.0
 40
2.0
100
AcDbArc
 50
0.0
 51
89.99999999999991
  0
ARC
  5
1ED
330
1F
100
AcDbEntity
  8
1
  6
Continuous
 62
     7
370
     9
100
AcDbCircle
 10
161.1968788230818
 20
648.8032659409022
 30
0.0
 40
3.0
100
AcDbArc
 50
0.0
 51
89.99999999999991
  0
ARC
  5
1EE
330
1F
100
AcDbEntity
  8
1
  6
Continuous
 62
     7
370
     9
100
AcDbCircle
 10
404.1968788230818
 20
654.8032659409022
 30
0.0
 40
270.0
100
AcDbArc
 50
172.9857967938347
 51
187.0142032061657
  0
ARC
  5
1EF
330
1F
100
AcDbEntity
  8
1
  6
Continuous
 62
     7
370
     9
100
AcDbCircle
 10
174.1968788230818
 20
612.5532659409022
 30
0.0
 40
2.0
100
AcDbArc
 50
269.9999999999998
 51
0.0
  0
ARC
  5
1F0
330
1F
100
AcDbEntity
  8
1
  6
Continuous
 62
     7
370
     9
100
AcDbCircle
 10
174.1968788230818
 20
697.0532659409022
 30
0.0
 40
2.0
100
AcDbArc
 50
0.0
 51
89.99999999999991
  0
ARC
  5
1F1
330
1F
100
AcDbEntity
  8
1
  6
Continuous
 62
     7
370
     9
100
AcDbCircle
 10
146.1427420610448
 20
686.5532659409022
 30
0.0
 40
10.0
100
AcDbArc
 50
89.99999999999991
 51
172.9857967938341
  0
CIRCLE
  5
1F2
330
1F
100
AcDbEntity
  8
1
  6
Continuous
 62
     7
370
     9
100
AcDbCircle
 10
240.4468788230818
 20
654.8032659409022
 30
0.0
 40
44.25
  0
CIRCLE
  5
1F3
330
1F
100
AcDbEntity
  8
1
  6
Continuous
 62
     7
370
     9
100
AcDbCircle
 10
240.4468788230818
 20
654.8032659409022
 30
0.0
 40
38.05000000000001
  0
CIRCLE
  5
1F4
330
1F
100
AcDbEntity
  8
1
  6
Continuous
 62
     7
370
     9
100
AcDbCircle
 10
240.4468788230818
 20
654.8032659409022
 30
0.0
 40
37.59199999999998
  0
CIRCLE
  5
1F5
330
1F
100
AcDbEntity
  8
1
  6
Continuous
 62
     7
370
     9
100
AcDbCircle
 10
240.4468788230818
 20
654.8032659409022
 30
0.0
 40
36.113
  0
LINE
  5
1F6
330
1F
100
AcDbEntity
  8
1
  6
Continuous
 62
     7
370
     9
100
AcDbLine
 10
803.2249602661005
 20
672.0532659409022
 30
0.0
 11
798.6160134430355
 21
672.0532659409022
 31
0.0
  0
LINE
  5
1F7
330
1F
100
AcDbEntity
  8
1
  6
Continuous
 62
     7
370
     9
100
AcDbLine
 10
859.4928197762702
 20
615.7854064307326
 30
0.0
 11
859.4928197762702
 21
611.1764596076678
 31
0.0
  0
LINE
  5
1F8
330
1F
100
AcDbEntity
  8
1
  6
Continuous
 62
     7
370
     9
100
AcDbLine
 10
803.2249602661005
 20
680.0532659409022
 30
0.0
 11
798.6160134430355
 21
680.0532659409022
 31
0.0
  0
LINE
  5
1F9
330
1F
100
AcDbEntity
  8
1
  6
Continuous
 62
     7
370
     9
100
AcDbLine
 10
867.4928197762702
 20
615.7854064307326
 30
0.0
 11
867.4928197762702
 21
611.1764596076678
 31
0.0
  0
LINE
  5
1FA
330
1F
100
AcDbEntity
  8
1
  6
Continuous
 62
     7
370
     9
100
AcDbLine
 10
859.4928197762702
 20
740.9300722741366
 30
0.0
 11
859.4928197762702
 21
736.3211254510718
 31
0.0
  0
LINE
  5
1FB
330
1F
100
AcDbEntity
  8
1
  6
Continuous
 62
     7
370
     9
100
AcDbLine
 10
928.3696261095042
 20
680.0532659409022
 30
0.0
 11
923.7606792864394
 21
680.0532659409022
 31
0.0
  0
LINE
  5
1FC
330
1F
100
AcDbEntity
  8
1
  6
Continuous
 62
     7
370
     9
100
AcDbLine
 10
867.4928197762702
 20
740.9300722741366
 30
0.0
 11
867.4928197762702
 21
736.3211254510718
 31
0.0
  0
LINE
  5
1FD
330
1F
100
AcDbEntity
  8
1
  6
Continuous
 62
     7
370
     9
100
AcDbLine
 10
928.3696261095042
 20
672.0532659409022
 30
0.0
 11
923.7606792864394
 21
672.0532659409022
 31
0.0
  0
ARC
  5
1FE
330
1F
100
AcDbEntity
  8
1
  6
Continuous
 62
     7
370
     9
100
AcDbCircle
 10
863.4928197762702
 20
676.0532659409022
 30
0.0
 40
61.75
100
AcDbArc
 50
93.71406802842668
 51
176.2859319715732
  0
ARC
  5
1FF
330
1F
100
AcDbEntity
  8
1
  6
Continuous
 62
     7
370
     9
100
AcDbCircle
 10
863.4928197762702
 20
676.0532659409022
 30
0.0
 40
61.75
100
AcDbArc
 50
183.7140680284271
 51
266.2859319715734
  0
ARC
  5
200
330
1F
100
AcDbEntity
  8
1
  6
Continuous
 62
     7
370
     9
100
AcDbCircle
 10
863.4928197762702
 20
676.0532659409022
 30
0.0
 40
61.75
100
AcDbArc
 50
273.7140680284268
 51
356.2859319715736
  0
CIRCLE
  5
201
330
1F
100
AcDbEntity
  8
1
  6
Continuous
 62
     7
370
     9
100
AcDbCircle
 10
863.4928197762702
 20
676.0532659409022
 30
0.0
 40
65.0
  0
ARC
  5
202
330
1F
100
AcDbEntity
  8
1
  6
Continuous
 62
     7
370
     9
100
AcDbCircle
 10
863.4928197762702
 20
676.0532659409022
 30
0.0
 40
61.75
100
AcDbArc
 50
3.714068028426673
 51
86.28593197157332
  0
LINE
  5
203
330
1F
100
AcDbEntity
  8
1
  6
Continuous
 62
     7
370
     9
100
AcDbLine
 10
998.4928197762702
 20
741.0532659409022
 30
0.0
 11
967.7755964361068
 21
741.0532659409022
 31
0.0
  0
LINE
  5
204
330
1F
100
AcDbEntity
  8
1
  6
Continuous
 62
     7
370
     9
100
AcDbLine
 10
1000.49281977627
 20
739.0532659409022
 30
0.0
 11
1000.49281977627
 21
613.0532659409022
 31
0.0
  0
LINE
  5
205
330
1F
100
AcDbEntity
  8
1
  6
Continuous
 62
     7
370
     9
100
AcDbLine
 10
984.7428195023153
 20
669.0532659409022
 30
0.0
 11
984.7428195023153
 21
617.3032659409022
 31
0.0
  0
LINE
  5
206
330
1F
100
AcDbEntity
  8
1
  6
Continuous
 62
     7
370
     9
100
AcDbLine
 10
984.7428195023153
 20
683.0532659409022
 30
0.0
 11
984.7428195023153
 21
734.8032659409022
 31
0.0
  0
LINE
  5
207
330
1F
100
AcDbEntity
  8
1
  6
Continuous
 62
     7
370
     9
100
AcDbLine
 10
985.9928197762702
 20
672.0532659409022
 30
0.0
 11
957.8773937720621
 21
672.0532659409022
 31
0.0
  0
LINE
  5
208
330
1F
100
AcDbEntity
  8
1
  6
Continuous
 62
     7
370
     9
100
AcDbLine
 10
987.9928197762702
 20
613.0532659409022
 30
0.0
 11
987.9928197762702
 21
670.0532659409022
 31
0.0
  0
LINE
  5
209
330
1F
100
AcDbEntity
  8
1
  6
Continuous
 62
     7
370
     9
100
AcDbLine
 10
981.7428195023153
 20
614.3032659409022
 30
0.0
 11
963.6544718678069
 21
614.3032659409022
 31
0.0
  0
LINE
  5
20A
330
1F
100
AcDbEntity
  8
1
  6
Continuous
 62
     7
370
     9
100
AcDbLine
 10
965.3684808235439
 20
611.6708244783316
 30
0.0
 11
957.8773937720621
 21
615.7854064307327
 31
0.0
  0
LINE
  5
20B
330
1F
100
AcDbEntity
  8
1
  6
Continuous
 62
     7
370
     9
100
AcDbLine
 10
998.4928197762702
 20
611.0532659409022
 30
0.0
 11
967.7755966967707
 21
611.0532659409022
 31
0.0
  0
LINE
  5
20C
330
1F
100
AcDbEntity
  8
1
  6
Continuous
 62
     7
370
     9
100
AcDbLine
 10
965.3684815021975
 20
740.4357077762324
 30
0.0
 11
957.8773937720621
 21
736.3211254510716
 31
0.0
  0
LINE
  5
20D
330
1F
100
AcDbEntity
  8
1
  6
Continuous
 62
     7
370
     9
100
AcDbLine
 10
957.8773937720621
 20
672.5532659409022
 30
0.0
 11
957.8773937720621
 21
679.5532659409022
 31
0.0
  0
LINE
  5
20E
330
1F
100
AcDbEntity
  8
1
  6
Continuous
 62
     7
370
     9
100
AcDbLine
 10
981.7428195023153
 20
737.8032659409022
 30
0.0
 11
963.6544718678069
 21
737.8032659409022
 31
0.0
  0
LINE
  5
20F
330
1F
100
AcDbEntity
  8
1
  6
Continuous
 62
     7
370
     9
100
AcDbLine
 10
987.9928197762702
 20
739.0532659409022
 30
0.0
 11
987.9928197762702
 21
682.0532659409022
 31
0.0
  0
LINE
  5
210
330
1F
100
AcDbEntity
  8
1
  6
Continuous
 62
     7
370
     9
100
AcDbLine
 10
985.9928197762702
 20
680.0532659409022
 30
0.0
 11
957.8773937720621
 21
680.0532659409022
 31
0.0
  0
ARC
  5
211
330
1F
100
AcDbEntity
  8
1
  6
Continuous
 62
     7
370
     9
100
AcDbCircle
 10
985.9928197762702
 20
739.0532659409022
 30
0.0
 40
2.0
100
AcDbArc
 50
0.0
 51
89.99999999999991
  0
ARC
  5
212
330
1F
100
AcDbEntity
  8
1
  6
Continuous
 62
     7
370
     9
100
AcDbCircle
 10
985.9928197762702
 20
613.0532659409022
 30
0.0
 40
2.0
100
AcDbArc
 50
269.9999999999998
 51
0.0
  0
ARC
  5
213
330
1F
100
AcDbEntity
  8
1
  6
Continuous
 62
     7
370
     9
100
AcDbCircle
 10
963.6544718678069
 20
626.3032659409022
 30
0.0
 40
12.0
100
AcDbArc
 50
187.2726046596809
 51
269.9999999999998
  0
ARC
  5
214
330
1F
100
AcDbEntity
  8
1
  6
Continuous
 62
     7
370
     9
100
AcDbCircle
 10
981.7428195023153
 20
617.3032659409022
 30
0.0
 40
3.0
100
AcDbArc
 50
269.9999999999998
 51
0.0
  0
ARC
  5
215
330
1F
100
AcDbEntity
  8
1
  6
Continuous
 62
     7
370
     9
100
AcDbCircle
 10
998.4928197762702
 20
613.0532659409022
 30
0.0
 40
2.0
100
AcDbArc
 50
269.9999999999998
 51
0.0
  0
ARC
  5
216
330
1F
100
AcDbEntity
  8
1
  6
Continuous
 62
     7
370
     9
100
AcDbCircle
 10
967.7755966967707
 20
616.0532659409022
 30
0.0
 40
5.0
100
AcDbArc
 50
241.2216068896273
 51
269.9999999999998
  0
ARC
  5
217
330
1F
100
AcDbEntity
  8
1
  6
Continuous
 62
     7
370
     9
100
AcDbCircle
 10
967.7755966967707
 20
736.0532659409022
 30
0.0
 40
5.0
100
AcDbArc
 50
89.99999999999991
 51
118.7783931103724
  0
ARC
  5
218
330
1F
100
AcDbEntity
  8
1
  6
Continuous
 62
     7
370
     9
100
AcDbCircle
 10
985.9928197762702
 20
670.0532659409022
 30
0.0
 40
2.0
100
AcDbArc
 50
0.0
 51
89.99999999999991
  0
ARC
  5
219
330
1F
100
AcDbEntity
  8
1
  6
Continuous
 62
     7
370
     9
100
AcDbCircle
 10
981.7428195023153
 20
669.0532659409022
 30
0.0
 40
3.0
100
AcDbArc
 50
0.0
 51
89.99999999999991
  0
ARC
  5
21A
330
1F
100
AcDbEntity
  8
1
  6
Continuous
 62
     7
370
     9
100
AcDbCircle
 10
1353.49281977627
 20
676.0532659409022
 30
0.0
 40
405.0
100
AcDbArc
 50
172.7273953403192
 51
187.2726046596811
  0
ARC
  5
21B
330
1F
100
AcDbEntity
  8
1
  6
Continuous
 62
     7
370
     9
100
AcDbCircle
 10
998.4928197762702
 20
739.0532659409022
 30
0.0
 40
2.0
100
AcDbArc
 50
0.0
 51
89.99999999999991
  0
ARC
  5
21C
330
1F
100
AcDbEntity
  8
1
  6
Continuous
 62
     7
370
     9
100
AcDbCircle
 10
981.7428195023153
 20
734.8032659409022
 30
0.0
 40
3.0
100
AcDbArc
 50
0.0
 51
89.99999999999991
  0
ARC
  5
21D
330
1F
100
AcDbEntity
  8
1
  6
Continuous
 62
     7
370
     9
100
AcDbCircle
 10
963.6544718678069
 20
725.8032659409022
 30
0.0
 40
12.0
100
AcDbArc
 50
89.99999999999991
 51
172.7273953403193
  0
ARC
  5
21E
330
1F
100
AcDbEntity
  8
1
  6
Continuous
 62
     7
370
     9
100
AcDbCircle
 10
981.7428195023153
 20
683.0532659409022
 30
0.0
 40
3.0
100
AcDbArc
 50
269.9999999999998
 51
0.0
  0
ARC
  5
21F
330
1F
100
AcDbEntity
  8
1
  6
Continuous
 62
     7
370
     9
100
AcDbCircle
 10
985.9928197762702
 20
682.0532659409022
 30
0.0
 40
2.0
100
AcDbArc
 50
269.9999999999998
 51
0.0
  0
CIRCLE
  5
220
330
1F
100
AcDbEntity
  8
1
  6
Continuous
 62
     7
370
     9
100
AcDbCircle
 10
1085.49281977627
 20
676.0532659409022
 30
0.0
 40
65.0
  0
CIRCLE
  5
221
330
1F
100
AcDbEntity
  8
1
  6
Continuous
 62
     7
370
     9
100
AcDbCircle
 10
1085.49281977627
 20
676.0532659409022
 30
0.0
 40
56.94999999999999
  0
CIRCLE
  5
222
330
1F
100
AcDbEntity
  8
1
  6
Continuous
 62
     7
370
     9
100
AcDbCircle
 10
1085.49281977627
 20
676.0532659409022
 30
0.0
 40
56.51499999999999
  0
CIRCLE
  5
223
330
1F
100
AcDbEntity
  8
1
  6
Continuous
 62
     7
370
     9
100
AcDbCircle
 10
1085.49281977627
 20
676.0532659409022
 30
0.0
 40
55.036
  0
LINE
  5
224
330
1F
100
AcDbEntity
  8
1
  6
Continuous
 62
     7
370
     9
100
AcDbLine
 10
440.1467855616529
 20
712.433026160463
 30
0.0
 11
440.1467855616529
 21
708.6700564216239
 31
0.0
  0
LINE
  5
225
330
1F
100
AcDbEntity
  8
1
  6
Continuous
 62
     7
370
     9
100
AcDbLine
 10
392.7670253420921
 20
665.0532659409022
 30
0.0
 11
396.5299950809311
 21
665.0532659409022
 31
0.0
  0
LINE
  5
226
330
1F
100
AcDbEntity
  8
1
  6
Continuous
 62
     7
370
     9
100
AcDbLine
 10
490.7635760423747
 20
658.0532659409022
 30
0.0
 11
494.5265457812137
 21
658.0532659409022
 31
0.0
  0
LINE
  5
227
330
1F
100
AcDbEntity
  8
1
  6
Continuous
 62
     7
370
     9
100
AcDbLine
 10
490.7635760423747
 20
665.0532659409022
 30
0.0
 11
494.5265457812137
 21
665.0532659409022
 31
0.0
  0
LINE
  5
228
330
1F
100
AcDbEntity
  8
1
  6
Continuous
 62
     7
370
     9
100
AcDbLine
 10
447.1467855616529
 20
712.433026160463
 30
0.0
 11
447.1467855616529
 21
708.6700564216239
 31
0.0
  0
LINE
  5
229
330
1F
100
AcDbEntity
  8
1
  6
Continuous
 62
     7
370
     9
100
AcDbLine
 10
440.1467855616529
 20
614.4364754601804
 30
0.0
 11
440.1467855616529
 21
610.6735057213414
 31
0.0
  0
LINE
  5
22A
330
1F
100
AcDbEntity
  8
1
  6
Continuous
 62
     7
370
     9
100
AcDbLine
 10
392.7670253420921
 20
658.0532659409022
 30
0.0
 11
396.5299950809311
 21
658.0532659409022
 31
0.0
  0
LINE
  5
22B
330
1F
100
AcDbEntity
  8
1
  6
Continuous
 62
     7
370
     9
100
AcDbLine
 10
447.1467855616529
 20
614.4364754601804
 30
0.0
 11
447.1467855616529
 21
610.6735057213414
 31
0.0
  0
CIRCLE
  5
22C
330
1F
100
AcDbEntity
  8
1
  6
Continuous
 62
     7
370
     9
100
AcDbCircle
 10
443.6467855616529
 20
661.5532659409022
 30
0.0
 40
51.0
  0
ARC
  5
22D
330
1F
100
AcDbEntity
  8
1
  6
Continuous
 62
     7
370
     9
100
AcDbCircle
 10
443.6467855616529
 20
661.5532659409022
 30
0.0
 40
48.5
100
AcDbArc
 50
4.138344220330058
 51
85.86165577966995
  0
ARC
  5
22E
330
1F
100
AcDbEntity
  8
1
  6
Continuous
 62
     7
370
     9
100
AcDbCircle
 10
443.6467855616529
 20
661.5532659409022
 30
0.0
 40
48.5
100
AcDbArc
 50
274.1383442203304
 51
355.8616557796702
  0
ARC
  5
22F
330
1F
100
AcDbEntity
  8
1
  6
Continuous
 62
     7
370
     9
100
AcDbCircle
 10
443.6467855616529
 20
661.5532659409022
 30
0.0
 40
48.5
100
AcDbArc
 50
184.1383442203304
 51
265.8616557796702
  0
ARC
  5
230
330
1F
100
AcDbEntity
  8
1
  6
Continuous
 62
     7
370
     9
100
AcDbCircle
 10
443.6467855616529
 20
661.5532659409022
 30
0.0
 40
48.5
100
AcDbArc
 50
94.13834422033007
 51
175.8616557796699
  0
LINE
  5
231
330
1F
100
AcDbEntity
  8
1
  6
Continuous
 62
     7
370
     9
100
AcDbLine
 10
529.4645210272407
 20
610.5532659409021
 30
0.0
 11
556.6467855616525
 21
610.5532659409021
 31
0.0
  0
LINE
  5
232
330
1F
100
AcDbEntity
  8
1
  6
Continuous
 62
     7
370
     9
100
AcDbLine
 10
522.0529218478496
 20
658.0532659409022
 30
0.0
 11
546.1467855616525
 21
658.0532659409022
 31
0.0
  0
LINE
  5
233
330
1F
100
AcDbEntity
  8
1
  6
Continuous
 62
     7
370
     9
100
AcDbLine
 10
527.1274584583533
 20
613.0532659409022
 30
0.0
 11
542.6467855616525
 21
613.0532659409022
 31
0.0
  0
LINE
  5
234
330
1F
100
AcDbEntity
  8
1
  6
Continuous
 62
     7
370
     9
100
AcDbLine
 10
527.9421600440895
 20
610.9682287966854
 30
0.0
 11
522.0529218478495
 21
614.4364754601802
 31
0.0
  0
LINE
  5
235
330
1F
100
AcDbEntity
  8
1
  6
Continuous
 62
     7
370
     9
100
AcDbLine
 10
548.1467855616525
 20
612.5532659409021
 30
0.0
 11
548.1467855616525
 21
656.0532659409022
 31
0.0
  0
LINE
  5
236
330
1F
100
AcDbEntity
  8
1
  6
Continuous
 62
     7
370
     9
100
AcDbLine
 10
545.6467855616525
 20
655.0532659409022
 30
0.0
 11
545.6467855616525
 21
616.0532659409022
 31
0.0
  0
LINE
  5
237
330
1F
100
AcDbEntity
  8
1
  6
Continuous
 62
     7
370
     9
100
AcDbLine
 10
529.4645210272407
 20
712.5532659409023
 30
0.0
 11
556.6467855616525
 21
712.5532659409023
 31
0.0
  0
LINE
  5
238
330
1F
100
AcDbEntity
  8
1
  6
Continuous
 62
     7
370
     9
100
AcDbLine
 10
527.9421600440894
 20
712.1383030851191
 30
0.0
 11
522.0529218478493
 21
708.6700564216242
 31
0.0
  0
LINE
  5
239
330
1F
100
AcDbEntity
  8
1
  6
Continuous
 62
     7
370
     9
100
AcDbLine
 10
558.6467855616525
 20
710.5532659409023
 30
0.0
 11
558.6467855616525
 21
612.5532659409021
 31
0.0
  0
LINE
  5
23A
330
1F
100
AcDbEntity
  8
1
  6
Continuous
 62
     7
370
     9
100
AcDbLine
 10
522.0529218478496
 20
665.0532659409022
 30
0.0
 11
546.1467855616525
 21
665.0532659409022
 31
0.0
  0
LINE
  5
23B
330
1F
100
AcDbEntity
  8
1
  6
Continuous
 62
     7
370
     9
100
AcDbLine
 10
527.1274584583533
 20
710.0532659409022
 30
0.0
 11
542.6467855616525
 21
710.0532659409022
 31
0.0
  0
LINE
  5
23C
330
1F
100
AcDbEntity
  8
1
  6
Continuous
 62
     7
370
     9
100
AcDbLine
 10
548.1467855616525
 20
710.5532659409023
 30
0.0
 11
548.1467855616525
 21
667.0532659409022
 31
0.0
  0
LINE
  5
23D
330
1F
100
AcDbEntity
  8
1
  6
Continuous
 62
     7
370
     9
100
AcDbLine
 10
545.6467855616525
 20
668.0532659409022
 30
0.0
 11
545.6467855616525
 21
707.0532659409022
 31
0.0
  0
LINE
  5
23E
330
1F
100
AcDbEntity
  8
1
  6
Continuous
 62
     7
370
     9
100
AcDbLine
 10
522.0529218478496
 20
658.5532659409022
 30
0.0
 11
522.0529218478496
 21
664.5532659409022
 31
0.0
  0
ARC
  5
23F
330
1F
100
AcDbEntity
  8
1
  6
Continuous
 62
     7
370
     9
100
AcDbCircle
 10
824.6467855616529
 20
661.5532659409022
 30
0.0
 40
310.0
100
AcDbArc
 50
172.62670708376
 51
187.3732926264432
  0
ARC
  5
240
330
1F
100
AcDbEntity
  8
1
  6
Continuous
 62
     7
370
     9
100
AcDbCircle
 10
556.6467855616525
 20
612.5532659409021
 30
0.0
 40
2.0
100
AcDbArc
 50
269.9999999999998
 51
0.0
  0
ARC
  5
241
330
1F
100
AcDbEntity
  8
1
  6
Continuous
 62
     7
370
     9
100
AcDbCircle
 10
527.1274584583533
 20
623.0532659409022
 30
0.0
 40
9.999999999999998
100
AcDbArc
 50
187.373292626443
 51
270.0000000000003
  0
ARC
  5
242
330
1F
100
AcDbEntity
  8
1
  6
Continuous
 62
     7
370
     9
100
AcDbCircle
 10
556.6467855616525
 20
710.5532659409023
 30
0.0
 40
2.0
100
AcDbArc
 50
0.0
 51
89.99999999999991
  0
ARC
  5
243
330
1F
100
AcDbEntity
  8
1
  6
Continuous
 62
     7
370
     9
100
AcDbCircle
 10
529.4645210272407
 20
613.5532659409021
 30
0.0
 40
3.0
100
AcDbArc
 50
239.505632262356
 51
269.9999999999998
  0
ARC
  5
244
330
1F
100
AcDbEntity
  8
1
  6
Continuous
 62
     7
370
     9
100
AcDbCircle
 10
546.1467855616526
 20
612.5532659409021
 30
0.0
 40
2.0
100
AcDbArc
 50
269.9999999999998
 51
0.0
  0
ARC
  5
245
330
1F
100
AcDbEntity
  8
1
  6
Continuous
 62
     7
370
     9
100
AcDbCircle
 10
542.6467855616525
 20
655.0532659409022
 30
0.0
 40
3.0
100
AcDbArc
 50
0.0
 51
89.99999999999991
  0
ARC
  5
246
330
1F
100
AcDbEntity
  8
1
  6
Continuous
 62
     7
370
     9
100
AcDbCircle
 10
546.1467855616526
 20
656.0532659409022
 30
0.0
 40
2.0
100
AcDbArc
 50
0.0
 51
89.99999999999991
  0
ARC
  5
247
330
1F
100
AcDbEntity
  8
1
  6
Continuous
 62
     7
370
     9
100
AcDbCircle
 10
542.6467855616525
 20
616.0532659409022
 30
0.0
 40
3.0
100
AcDbArc
 50
269.9999999999998
 51
0.0
  0
ARC
  5
248
330
1F
100
AcDbEntity
  8
1
  6
Continuous
 62
     7
370
     9
100
AcDbCircle
 10
529.4645210272407
 20
709.5532659409023
 30
0.0
 40
3.0
100
AcDbArc
 50
91.21553544325715
 51
120.4943677376447
  0
ARC
  5
249
330
1F
100
AcDbEntity
  8
1
  6
Continuous
 62
     7
370
     9
100
AcDbCircle
 10
527.1274584583533
 20
700.0532659409022
 30
0.0
 40
9.999999999999998
100
AcDbArc
 50
89.99999999999991
 51
172.6267073735567
  0
ARC
  5
24A
330
1F
100
AcDbEntity
  8
1
  6
Continuous
 62
     7
370
     9
100
AcDbCircle
 10
546.1467855616526
 20
710.5532659409023
 30
0.0
 40
2.0
100
AcDbArc
 50
0.0
 51
89.99999999999991
  0
ARC
  5
24B
330
1F
100
AcDbEntity
  8
1
  6
Continuous
 62
     7
370
     9
100
AcDbCircle
 10
542.6467855616525
 20
668.0532659409022
 30
0.0
 40
3.0
100
AcDbArc
 50
269.9999999999998
 51
0.0
  0
ARC
  5
24C
330
1F
100
AcDbEntity
  8
1
  6
Continuous
 62
     7
370
     9
100
AcDbCircle
 10
546.1467855616526
 20
667.0532659409022
 30
0.0
 40
2.0
100
AcDbArc
 50
269.9999999999998
 51
0.0
  0
ARC
  5
24D
330
1F
100
AcDbEntity
  8
1
  6
Continuous
 62
     7
370
     9
100
AcDbCircle
 10
542.6467855616525
 20
707.0532659409022
 30
0.0
 40
3.0
100
AcDbArc
 50
0.0
 51
89.99999999999991
  0
CIRCLE
  5
24E
330
1F
100
AcDbEntity
  8
1
  6
Continuous
 62
     7
370
     9
100
AcDbCircle
 10
629.6467855616525
 20
661.5532659409022
 30
0.0
 40
51.0
  0
CIRCLE
  5
24F
330
1F
100
AcDbEntity
  8
1
  6
Continuous
 62
     7
370
     9
100
AcDbCircle
 10
629.6467855616525
 20
661.5532659409022
 30
0.0
 40
44.40000000000001
  0
CIRCLE
  5
250
330
1F
100
AcDbEntity
  8
1
  6
Continuous
 62
     7
370
     9
100
AcDbCircle
 10
629.6467855616525
 20
661.5532659409022
 30
0.0
 40
43.94200000000001
  0
CIRCLE
  5
251
330
1F
100
AcDbEntity
  8
1
  6
Continuous
 62
     7
370
     9
100
AcDbCircle
 10
629.6467855616525
 20
661.5532659409022
 30
0.0
 40
42.46299999999999
  0
LINE
  5
252
330
1F
100
AcDbEntity
  8
7
  6
DASHDOT
 62
     4
370
     9
100
AcDbLine
 10
63.23863141524104
 20
111.8856454121307
 30
0.0
 11
44.15863141524106
 21
111.8856454121307
 31
0.0
  0
LINE
  5
253
330
1F
100
AcDbEntity
  8
7
  6
DASHDOT
 62
     4
370
     9
100
AcDbLine
 10
53.69863141524105
 20
121.4256454121307
 30
0.0
 11
53.69863141524105
 21
102.3456454121307
 31
0.0
  0
LINE
  5
254
330
1F
100
AcDbEntity
  8
7
  6
DASHDOT
 62
     4
370
     9
100
AcDbLine
 10
63.23863141524104
 20
111.8856454121307
 30
0.0
 11
44.15863141524106
 21
111.8856454121307
 31
0.0
  0
LINE
  5
255
330
1F
100
AcDbEntity
  8
7
  6
DASHDOT
 62
     4
370
     9
100
AcDbLine
 10
53.69863141524105
 20
121.4256454121307
 30
0.0
 11
53.69863141524105
 21
102.3456454121307
 31
0.0
  0
LINE
  5
256
330
1F
100
AcDbEntity
  8
7
  6
DASHDOT
 62
     4
370
     9
100
AcDbLine
 10
76.69863141524105
 20
111.8856454121307
 30
0.0
 11
97.19863141524105
 21
111.8856454121307
 31
0.0
  0
LINE
  5
257
330
1F
100
AcDbEntity
  8
7
  6
DASHDOT
 62
     4
370
     9
100
AcDbLine
 10
129.7386314152411
 20
111.8856454121307
 30
0.0
 11
110.6586314152411
 21
111.8856454121307
 31
0.0
  0
LINE
  5
258
330
1F
100
AcDbEntity
  8
7
  6
DASHDOT
 62
     4
370
     9
100
AcDbLine
 10
120.1986314152411
 20
121.4256454121307
 30
0.0
 11
120.1986314152411
 21
102.3456454121307
 31
0.0
  0
LINE
  5
259
330
1F
100
AcDbEntity
  8
7
  6
DASHDOT
 62
     4
370
     9
100
AcDbLine
 10
278.2935458786937
 20
115.3456454121307
 30
0.0
 11
252.2935458786937
 21
115.3456454121307
 31
0.0
  0
LINE
  5
25A
330
1F
100
AcDbEntity
  8
7
  6
DASHDOT
 62
     4
370
     9
100
AcDbLine
 10
265.2935458786937
 20
128.3456454121307
 30
0.0
 11
265.2935458786937
 21
102.3456454121307
 31
0.0
  0
LINE
  5
25B
330
1F
100
AcDbEntity
  8
7
  6
DASHDOT
 62
     4
370
     9
100
AcDbLine
 10
290.2935458786936
 20
115.3456454121307
 30
0.0
 11
314.2935458786936
 21
115.3456454121307
 31
0.0
  0
LINE
  5
25C
330
1F
100
AcDbEntity
  8
7
  6
DASHDOT
 62
     4
370
     9
100
AcDbLine
 10
352.2935458786937
 20
115.3456454121307
 30
0.0
 11
326.2935458786937
 21
115.3456454121307
 31
0.0
  0
LINE
  5
25D
330
1F
100
AcDbEntity
  8
7
  6
DASHDOT
 62
     4
370
     9
100
AcDbLine
 10
339.2935458786937
 20
128.3456454121307
 30
0.0
 11
339.2935458786937
 21
102.3456454121307
 31
0.0
  0
LINE
  5
25E
330
1F
100
AcDbEntity
  8
7
  6
DASHDOT
 62
     4
370
     9
100
AcDbLine
 10
485.946734059098
 20
117.3456454121307
 30
0.0
 11
455.946734059098
 21
117.3456454121307
 31
0.0
  0
LINE
  5
25F
330
1F
100
AcDbEntity
  8
7
  6
DASHDOT
 62
     4
370
     9
100
AcDbLine
 10
470.946734059098
 20
132.3456454121307
 30
0.0
 11
470.946734059098
 21
102.3456454121307
 31
0.0
  0
LINE
  5
260
330
1F
100
AcDbEntity
  8
7
  6
DASHDOT
 62
     4
370
     9
100
AcDbLine
 10
497.946734059098
 20
117.3456454121307
 30
0.0
 11
522.9467340590979
 21
117.3456454121307
 31
0.0
  0
LINE
  5
261
330
1F
100
AcDbEntity
  8
7
  6
DASHDOT
 62
     4
370
     9
100
AcDbLine
 10
564.9467340590978
 20
117.3456454121307
 30
0.0
 11
534.9467340590978
 21
117.3456454121307
 31
0.0
  0
LINE
  5
262
330
1F
100
AcDbEntity
  8
7
  6
DASHDOT
 62
     4
370
     9
100
AcDbLine
 10
549.9467340590978
 20
132.3456454121307
 30
0.0
 11
549.9467340590978
 21
102.3456454121307
 31
0.0
  0
LINE
  5
263
330
1F
100
AcDbEntity
  8
7
  6
DASHDOT
 62
     4
370
     9
100
AcDbLine
 10
725.9902799377917
 20
119.3456454121307
 30
0.0
 11
691.9902799377917
 21
119.3456454121307
 31
0.0
  0
LINE
  5
264
330
1F
100
AcDbEntity
  8
7
  6
DASHDOT
 62
     4
370
     9
100
AcDbLine
 10
708.9902799377917
 20
136.3456454121307
 30
0.0
 11
708.9902799377917
 21
102.3456454121307
 31
0.0
  0
LINE
  5
265
330
1F
100
AcDbEntity
  8
7
  6
DASHDOT
 62
     4
370
     9
100
AcDbLine
 10
737.9902799377917
 20
119.3456454121307
 30
0.0
 11
766.9902799377917
 21
119.3456454121307
 31
0.0
  0
LINE
  5
266
330
1F
100
AcDbEntity
  8
7
  6
DASHDOT
 62
     4
370
     9
100
AcDbLine
 10
812.9902799377917
 20
119.3456454121307
 30
0.0
 11
778.9902799377917
 21
119.3456454121307
 31
0.0
  0
LINE
  5
267
330
1F
100
AcDbEntity
  8
7
  6
DASHDOT
 62
     4
370
     9
100
AcDbLine
 10
795.9902799377917
 20
136.3456454121307
 30
0.0
 11
795.9902799377917
 21
102.3456454121307
 31
0.0
  0
LINE
  5
268
330
1F
100
AcDbEntity
  8
7
  6
DASHDOT
 62
     4
370
     9
100
AcDbLine
 10
928.5420042581609
 20
144.3456454121307
 30
0.0
 11
928.5420042581609
 21
102.3456454121307
 31
0.0
  0
LINE
  5
269
330
1F
100
AcDbEntity
  8
7
  6
DASHDOT
 62
     4
370
     9
100
AcDbLine
 10
949.5420042581609
 20
123.3456454121307
 30
0.0
 11
907.5420042581609
 21
123.3456454121307
 31
0.0
  0
LINE
  5
26A
330
1F
100
AcDbEntity
  8
7
  6
DASHDOT
 62
     4
370
     9
100
AcDbLine
 10
992.5420042581609
 20
123.3456454121307
 30
0.0
 11
961.5420042581609
 21
123.3456454121307
 31
0.0
  0
LINE
  5
26B
330
1F
100
AcDbEntity
  8
7
  6
Continuous
 62
     4
370
     9
100
AcDbLine
 10
972.5420042581609
 20
124.8456454121307
 30
0.0
 11
972.5420042581609
 21
121.8456454121307
 31
0.0
  0
LINE
  5
26C
330
1F
100
AcDbEntity
  8
7
  6
DASHDOT
 62
     4
370
     9
100
AcDbLine
 10
1046.542004258161
 20
123.3456454121307
 30
0.0
 11
1004.542004258161
 21
123.3456454121307
 31
0.0
  0
LINE
  5
26D
330
1F
100
AcDbEntity
  8
7
  6
DASHDOT
 62
     4
370
     9
100
AcDbLine
 10
1025.542004258161
 20
144.3456454121307
 30
0.0
 11
1025.542004258161
 21
102.3456454121307
 31
0.0
  0
LINE
  5
26E
330
1F
100
AcDbEntity
  8
7
  6
DASHDOT
 62
     4
370
     9
100
AcDbLine
 10
1062.938359338834
 20
431.4685069984449
 30
0.0
 11
1062.938359338834
 21
353.4685069984449
 31
0.0
  0
LINE
  5
26F
330
1F
100
AcDbEntity
  8
7
  6
DASHDOT
 62
     4
370
     9
100
AcDbLine
 10
1023.938359338834
 20
392.4685069984449
 30
0.0
 11
1101.938359338834
 21
392.4685069984449
 31
0.0
  0
LINE
  5
270
330
1F
100
AcDbEntity
  8
7
  6
DASHDOT
 62
     4
370
     9
100
AcDbLine
 10
968.938359338834
 20
392.4685069984449
 30
0.0
 11
1011.938359338834
 21
392.4685069984449
 31
0.0
  0
LINE
  5
271
330
1F
100
AcDbEntity
  8
7
  6
Continuous
 62
     4
370
     9
100
AcDbLine
 10
981.938359338834
 20
390.4685069984449
 30
0.0
 11
981.938359338834
 21
394.4685069984449
 31
0.0
  0
LINE
  5
272
330
1F
100
AcDbEntity
  8
7
  6
DASHDOT
 62
     4
370
     9
100
AcDbLine
 10
878.9383593388341
 20
392.4685069984449
 30
0.0
 11
956.9383593388341
 21
392.4685069984449
 31
0.0
  0
LINE
  5
273
330
1F
100
AcDbEntity
  8
7
  6
DASHDOT
 62
     4
370
     9
100
AcDbLine
 10
917.9383593388341
 20
431.4685069984449
 30
0.0
 11
917.9383593388341
 21
353.4685069984449
 31
0.0
  0
LINE
  5
274
330
1F
100
AcDbEntity
  8
7
  6
DASHDOT
 62
     4
370
     9
100
AcDbLine
 10
683.0401679904094
 20
386.2185069984449
 30
0.0
 11
748.5401679904094
 21
386.2185069984449
 31
0.0
  0
LINE
  5
275
330
1F
100
AcDbEntity
  8
7
  6
DASHDOT
 62
     4
370
     9
100
AcDbLine
 10
715.7901679904094
 20
418.9685069984449
 30
0.0
 11
715.7901679904094
 21
353.4685069984449
 31
0.0
  0
LINE
  5
276
330
1F
100
AcDbEntity
  8
7
  6
DASHDOT
 62
     4
370
     9
100
AcDbLine
 10
633.0401679904094
 20
386.2185069984449
 30
0.0
 11
671.0401679904094
 21
386.2185069984449
 31
0.0
  0
LINE
  5
277
330
1F
100
AcDbEntity
  8
7
  6
Continuous
 62
     4
370
     9
100
AcDbLine
 10
644.0401679904094
 20
388.2185069984449
 30
0.0
 11
644.0401679904094
 21
386.2185069984449
 31
0.0
  0
LINE
  5
278
330
1F
100
AcDbEntity
  8
7
  6
Continuous
 62
     4
370
     9
100
AcDbLine
 10
644.0401679904094
 20
384.2185069984449
 30
0.0
 11
644.0401679904094
 21
386.2185069984449
 31
0.0
  0
LINE
  5
279
330
1F
100
AcDbEntity
  8
7
  6
DASHDOT
 62
     4
370
     9
100
AcDbLine
 10
588.2901679904094
 20
418.9685069984449
 30
0.0
 11
588.2901679904094
 21
353.4685069984449
 31
0.0
  0
LINE
  5
27A
330
1F
100
AcDbEntity
  8
7
  6
DASHDOT
 62
     4
370
     9
100
AcDbLine
 10
555.5401679904094
 20
386.2185069984449
 30
0.0
 11
621.0401679904094
 21
386.2185069984449
 31
0.0
  0
LINE
  5
27B
330
1F
100
AcDbEntity
  8
7
  6
DASHDOT
 62
     4
370
     9
100
AcDbLine
 10
450.2935458786936
 20
382.9685069984449
 30
0.0
 11
391.2935458786936
 21
382.9685069984449
 31
0.0
  0
LINE
  5
27C
330
1F
100
AcDbEntity
  8
7
  6
DASHDOT
 62
     4
370
     9
100
AcDbLine
 10
420.7935458786936
 20
412.4685069984449
 30
0.0
 11
420.7935458786936
 21
353.4685069984449
 31
0.0
  0
LINE
  5
27D
330
1F
100
AcDbEntity
  8
7
  6
Continuous
 62
     4
370
     9
100
AcDbLine
 10
353.2935458786936
 20
380.9685069984449
 30
0.0
 11
353.2935458786936
 21
384.9685069984449
 31
0.0
  0
LINE
  5
27E
330
1F
100
AcDbEntity
  8
7
  6
DASHDOT
 62
     4
370
     9
100
AcDbLine
 10
341.2935458786936
 20
382.9685069984449
 30
0.0
 11
379.2935458786936
 21
382.9685069984449
 31
0.0
  0
LINE
  5
27F
330
1F
100
AcDbEntity
  8
7
  6
DASHDOT
 62
     4
370
     9
100
AcDbLine
 10
299.7935458786936
 20
412.4685069984449
 30
0.0
 11
299.7935458786936
 21
353.4685069984449
 31
0.0
  0
LINE
  5
280
330
1F
100
AcDbEntity
  8
7
  6
DASHDOT
 62
     4
370
     9
100
AcDbLine
 10
270.2935458786936
 20
382.9685069984449
 30
0.0
 11
329.2935458786936
 21
382.9685069984449
 31
0.0
  0
LINE
  5
281
330
1F
100
AcDbEntity
  8
7
  6
DASHDOT
 62
     4
370
     9
100
AcDbLine
 10
178.6986314152411
 20
377.9685069984449
 30
0.0
 11
129.698631415241
 21
377.9685069984449
 31
0.0
  0
LINE
  5
282
330
1F
100
AcDbEntity
  8
7
  6
DASHDOT
 62
     4
370
     9
100
AcDbLine
 10
154.198631415241
 20
402.4685069984449
 30
0.0
 11
154.198631415241
 21
353.4685069984449
 31
0.0
  0
LINE
  5
283
330
1F
100
AcDbEntity
  8
7
  6
Continuous
 62
     4
370
     9
100
AcDbLine
 10
93.69863141524101
 20
375.9685069984449
 30
0.0
 11
93.69863141524101
 21
379.9685069984449
 31
0.0
  0
LINE
  5
284
330
1F
100
AcDbEntity
  8
7
  6
DASHDOT
 62
     4
370
     9
100
AcDbLine
 10
82.69863141524101
 20
377.9685069984449
 30
0.0
 11
117.698631415241
 21
377.9685069984449
 31
0.0
  0
LINE
  5
285
330
1F
100
AcDbEntity
  8
7
  6
DASHDOT
 62
     4
370
     9
100
AcDbLine
 10
21.69863141524107
 20
377.9685069984449
 30
0.0
 11
70.69863141524107
 21
377.9685069984449
 31
0.0
  0
LINE
  5
286
330
1F
100
AcDbEntity
  8
7
  6
DASHDOT
 62
     4
370
     9
100
AcDbLine
 10
46.19863141524107
 20
402.4685069984449
 30
0.0
 11
46.19863141524107
 21
353.4685069984449
 31
0.0
  0
LINE
  5
287
330
1F
100
AcDbEntity
  8
7
  6
DASHDOT
 62
     4
370
     9
100
AcDbLine
 10
21.69687882308179
 20
654.8032659409022
 30
0.0
 11
118.1968788230818
 21
654.8032659409022
 31
0.0
  0
LINE
  5
288
330
1F
100
AcDbEntity
  8
7
  6
DASHDOT
 62
     4
370
     9
100
AcDbLine
 10
69.94687882308179
 20
703.0532659409022
 30
0.0
 11
69.94687882308179
 21
606.5532659409022
 31
0.0
  0
LINE
  5
289
330
1F
100
AcDbEntity
  8
7
  6
DASHDOT
 62
     4
370
     9
100
AcDbLine
 10
130.1968788230818
 20
654.8032659409022
 30
0.0
 11
180.1968788230818
 21
654.8032659409022
 31
0.0
  0
LINE
  5
28A
330
1F
100
AcDbEntity
  8
7
  6
Continuous
 62
     4
370
     9
100
AcDbLine
 10
148.1968788230818
 20
652.3032659409022
 30
0.0
 11
148.1968788230818
 21
657.3032659409022
 31
0.0
  0
LINE
  5
28B
330
1F
100
AcDbEntity
  8
7
  6
DASHDOT
 62
     4
370
     9
100
AcDbLine
 10
240.4468788230818
 20
703.0532659409022
 30
0.0
 11
240.4468788230818
 21
606.5532659409022
 31
0.0
  0
LINE
  5
28C
330
1F
100
AcDbEntity
  8
7
  6
DASHDOT
 62
     4
370
     9
100
AcDbLine
 10
192.1968788230818
 20
654.8032659409022
 30
0.0
 11
288.6968788230818
 21
654.8032659409022
 31
0.0
  0
LINE
  5
28D
330
1F
100
AcDbEntity
  8
7
  6
DASHDOT
 62
     4
370
     9
100
AcDbLine
 10
388.6467855616529
 20
661.5532659409022
 30
0.0
 11
498.6467855616529
 21
661.5532659409022
 31
0.0
  0
LINE
  5
28E
330
1F
100
AcDbEntity
  8
7
  6
DASHDOT
 62
     4
370
     9
100
AcDbLine
 10
443.6467855616529
 20
716.5532659409022
 30
0.0
 11
443.6467855616529
 21
606.5532659409022
 31
0.0
  0
LINE
  5
28F
330
1F
100
AcDbEntity
  8
7
  6
DASHDOT
 62
     4
370
     9
100
AcDbLine
 10
510.6467855616527
 20
661.5532659409022
 30
0.0
 11
562.6467855616525
 21
661.5532659409022
 31
0.0
  0
LINE
  5
290
330
1F
100
AcDbEntity
  8
7
  6
Continuous
 62
     4
370
     9
100
AcDbLine
 10
528.6467855616525
 20
664.5532659409022
 30
0.0
 11
528.6467855616525
 21
658.5532659409022
 31
0.0
  0
LINE
  5
291
330
1F
100
AcDbEntity
  8
7
  6
DASHDOT
 62
     4
370
     9
100
AcDbLine
 10
574.6467855616525
 20
661.5532659409022
 30
0.0
 11
684.6467855616525
 21
661.5532659409022
 31
0.0
  0
LINE
  5
292
330
1F
100
AcDbEntity
  8
7
  6
DASHDOT
 62
     4
370
     9
100
AcDbLine
 10
629.6467855616525
 20
716.5532659409022
 30
0.0
 11
629.6467855616525
 21
606.5532659409022
 31
0.0
  0
LINE
  5
293
330
1F
100
AcDbEntity
  8
7
  6
DASHDOT
 62
     4
370
     9
100
AcDbLine
 10
932.9928197762702
 20
676.0532659409022
 30
0.0
 11
793.99281977627
 21
676.0532659409022
 31
0.0
  0
LINE
  5
294
330
1F
100
AcDbEntity
  8
7
  6
DASHDOT
 62
     4
370
     9
100
AcDbLine
 10
863.4928197762702
 20
745.5532659409022
 30
0.0
 11
863.4928197762702
 21
606.5532659409022
 31
0.0
  0
LINE
  5
295
330
1F
100
AcDbEntity
  8
7
  6
DASHDOT
 62
     4
370
     9
100
AcDbLine
 10
1004.49281977627
 20
676.0532659409022
 30
0.0
 11
944.4928197762702
 21
676.0532659409022
 31
0.0
  0
LINE
  5
296
330
1F
100
AcDbEntity
  8
7
  6
Continuous
 62
     4
370
     9
100
AcDbLine
 10
966.4928197762702
 20
672.5532659409022
 30
0.0
 11
966.4928197762702
 21
679.5532659409022
 31
0.0
  0
LINE
  5
297
330
1F
100
AcDbEntity
  8
7
  6
DASHDOT
 62
     4
370
     9
100
AcDbLine
 10
1085.49281977627
 20
745.5532659409022
 30
0.0
 11
1085.49281977627
 21
606.5532659409022
 31
0.0
  0
LINE
  5
298
330
1F
100
AcDbEntity
  8
7
  6
DASHDOT
 62
     4
370
     9
100
AcDbLine
 10
1154.99281977627
 20
676.0532659409022
 30
0.0
 11
1015.99281977627
 21
676.0532659409022
 31
0.0
  0
MTEXT
  5
299
330
1F
100
AcDbEntity
  8
1
  6
Continuous
 62
     7
370
     9
100
AcDbMText
 10
158.729636491901
 20
561.1026438569207
 30
0.0
 40
20.0
 41
49.16696696696696
 46
20.0
 71
     8
 72
     1
  1
{\fＭＳ 明朝;\T0.750000;65A}
 73
     1
 44
1.0
1001
ACAD
1000
ACAD_MTEXT_DEFINED_HEIGHT_BEGIN
1070
    46
1040
20.0
1000
ACAD_MTEXT_DEFINED_HEIGHT_END
  0
MTEXT
  5
29A
330
1F
100
AcDbEntity
  8
1
  6
Continuous
 62
     7
370
     9
100
AcDbMText
 10
547.0399872781447
 20
561.1026438569207
 30
0.0
 40
20.0
 41
49.33753753753754
 46
20.0
 71
     8
 72
     1
  1
{\fＭＳ 明朝;\T0.750000;80A}
 73
     1
 44
1.0
1001
ACAD
1000
ACAD_MTEXT_DEFINED_HEIGHT_BEGIN
1070
    46
1040
20.0
1000
ACAD_MTEXT_DEFINED_HEIGHT_END
  0
MTEXT
  5
29B
330
1F
100
AcDbEntity
  8
1
  6
Continuous
 62
     7
370
     9
100
AcDbMText
 10
980.3770934356228
 20
561.1026438569207
 30
0.0
 40
20.0
 41
61.99529529529529
 46
20.0
 71
     8
 72
     1
  1
{\fＭＳ 明朝;\T0.750000;100A}
 73
     1
 44
1.0
1001
ACAD
1000
ACAD_MTEXT_DEFINED_HEIGHT_BEGIN
1070
    46
1040
20.0
1000
ACAD_MTEXT_DEFINED_HEIGHT_END
  0
MTEXT
  5
29C
330
1F
100
AcDbEntity
  8
1
  6
Continuous
 62
     7
370
     9
100
AcDbMText
 10
101.7013979111739
 20
303.4401244167963
 30
0.0
 40
20.0
 41
49.02482482482482
 46
20.0
 71
     8
 72
     1
  1
{\fＭＳ 明朝;\T0.750000;25A}
 73
     1
 44
1.0
1001
ACAD
1000
ACAD_MTEXT_DEFINED_HEIGHT_BEGIN
1070
    46
1040
20.0
1000
ACAD_MTEXT_DEFINED_HEIGHT_END
  0
MTEXT
  5
29D
330
1F
100
AcDbEntity
  8
1
  6
Continuous
 62
     7
370
     9
100
AcDbMText
 10
359.7998945415515
 20
303.4401244167963
 30
0.0
 40
20.0
 41
48.68368368368368
 46
20.0
 71
     8
 72
     1
  1
{\fＭＳ 明朝;\T0.750000;32A}
 73
     1
 44
1.0
1001
ACAD
1000
ACAD_MTEXT_DEFINED_HEIGHT_BEGIN
1070
    46
1040
20.0
1000
ACAD_MTEXT_DEFINED_HEIGHT_END
  0
MTEXT
  5
29E
330
1F
100
AcDbEntity
  8
1
  6
Continuous
 62
     7
370
     9
100
AcDbMText
 10
652.3890311120244
 20
303.4401244167963
 30
0.0
 40
20.0
 41
49.67867867867867
 46
20.0
 71
     8
 72
     1
  1
{\fＭＳ 明朝;\T0.750000;40A}
 73
     1
 44
1.0
1001
ACAD
1000
ACAD_MTEXT_DEFINED_HEIGHT_BEGIN
1070
    46
1040
20.0
1000
ACAD_MTEXT_DEFINED_HEIGHT_END
  0
MTEXT
  5
29F
330
1F
100
AcDbEntity
  8
1
  6
Continuous
 62
     7
370
     9
100
AcDbMText
 10
995.1155445617093
 20
303.4401244167963
 30
0.0
 40
20.0
 41
48.68368368368368
 46
20.0
 71
     8
 72
     1
  1
{\fＭＳ 明朝;\T0.750000;50A}
 73
     1
 44
1.0
1001
ACAD
1000
ACAD_MTEXT_DEFINED_HEIGHT_BEGIN
1070
    46
1040
20.0
1000
ACAD_MTEXT_DEFINED_HEIGHT_END
  0
MTEXT
  5
2A0
330
1F
100
AcDbEntity
  8
1
  6
Continuous
 62
     7
370
     9
100
AcDbMText
 10
83.6386207093995
 20
58.85692068429239
 30
0.0
 40
20.0
 41
33.58108108108108
 46
20.0
 71
     8
 72
     1
  1
{\fＭＳ 明朝;\T0.750000;6A}
 73
     1
 44
1.0
1001
ACAD
1000
ACAD_MTEXT_DEFINED_HEIGHT_BEGIN
1070
    46
1040
20.0
1000
ACAD_MTEXT_DEFINED_HEIGHT_END
  0
MTEXT
  5
2A1
330
1F
100
AcDbEntity
  8
1
  6
Continuous
 62
     7
370
     9
100
AcDbMText
 10
302.2085187567462
 20
58.85692068429239
 30
0.0
 40
20.0
 41
33.75165165165165
 46
20.0
 71
     8
 72
     1
  1
{\fＭＳ 明朝;\T0.750000;8A}
 73
     1
 44
1.0
1001
ACAD
1000
ACAD_MTEXT_DEFINED_HEIGHT_BEGIN
1070
    46
1040
20.0
1000
ACAD_MTEXT_DEFINED_HEIGHT_END
  0
MTEXT
  5
2A2
330
1F
100
AcDbEntity
  8
1
  6
Continuous
 62
     7
370
     9
100
AcDbMText
 10
510.3149642379964
 20
58.85692068429239
 30
0.0
 40
20.0
 41
46.40940940940941
 46
20.0
 71
     8
 72
     1
  1
{\fＭＳ 明朝;\T0.750000;10A}
 73
     1
 44
1.0
1001
ACAD
1000
ACAD_MTEXT_DEFINED_HEIGHT_BEGIN
1070
    46
1040
20.0
1000
ACAD_MTEXT_DEFINED_HEIGHT_END
  0
MTEXT
  5
2A3
330
1F
100
AcDbEntity
  8
1
  6
Continuous
 62
     7
370
     9
100
AcDbMText
 10
754.4621907802454
 20
58.85692068429239
 30
0.0
 40
20.0
 41
46.40940940940941
 46
20.0
 71
     8
 72
     1
  1
{\fＭＳ 明朝;\T0.750000;15A}
 73
     1
 44
1.0
1001
ACAD
1000
ACAD_MTEXT_DEFINED_HEIGHT_BEGIN
1070
    46
1040
20.0
1000
ACAD_MTEXT_DEFINED_HEIGHT_END
  0
MTEXT
  5
2A4
330
1F
100
AcDbEntity
  8
1
  6
Continuous
 62
     7
370
     9
100
AcDbMText
 10
978.4575827507531
 20
58.85692068429239
 30
0.0
 40
20.0
 41
49.02482482482482
 46
20.0
 71
     8
 72
     1
  1
{\fＭＳ 明朝;\T0.750000;20A}
 73
     1
 44
1.0
1001
ACAD
1000
ACAD_MTEXT_DEFINED_HEIGHT_BEGIN
1070
    46
1040
20.0
1000
ACAD_MTEXT_DEFINED_HEIGHT_END
  0
VIEWPORT
  5
3F
330
1B
100
AcDbEntity
 67
     1
  8
0
100
AcDbViewport
 10
594.5
 20
420.5
 30
0.0
 40
1189.0
 41
841.0
 68
     1
 69
     1
 12
594.5
 22
420.5
 13
0.0
 23
0.0
 14
0.5
 24
0.5
 15
0.5
 25
0.5
 16
0.0
 26
0.0
 36
1.0
 17
0.0
 27
0.0
 37
0.0
 42
50.0
 43
0.0
 44
0.0
 45
9.0
 50
0.0
 51
0.0
 72
   100
 90
   557152
  1

281
     0
 71
     1
 74
     0
110
0.0
120
0.0
130
0.0
111
1.0
121
0.0
131
0.0
112
0.0
122
1.0
132
0.0
 79
     0
146
0.0
170
     0
 61
     5
292
     1
282
     1
141
0.0
142
0.0
 63
   256
  0
ENDSEC
  0
SECTION
  2
OBJECTS
  0
DICTIONARY
  5
C
330
0
100
AcDbDictionary
281
     1
  3
ACAD_GROUP
350
D
  3
ACAD_LAYOUT
350
1A
  3
ACAD_MATERIAL
350
3B
  3
ACAD_MLEADERSTYLE
350
2C6
  3
ACAD_MLINESTYLE
350
17
  3
ACAD_PLOTSETTINGS
350
19
  3
ACAD_PLOTSTYLENAME
350
E
  3
ACAD_TABLESTYLE
350
2C5
  3
ACAD_VISUALSTYLE
350
2A
  0
DICTIONARY
  5
D
102
{ACAD_REACTORS
330
C
102
}
330
C
100
AcDbDictionary
281
     1
  0
DICTIONARY
  5
1A
102
{ACAD_REACTORS
330
C
102
}
330
C
100
AcDbDictionary
281
     1
  3
Layout1
350
1E
  3
Layout2
350
26
  3
Model
350
22
  0
DICTIONARY
  5
3B
102
{ACAD_REACTORS
330
C
102
}
330
C
100
AcDbDictionary
281
     1
  3
ByBlock
350
3D
  3
ByLayer
350
3C
  3
Global
350
3E
  0
DICTIONARY
  5
2C6
102
{ACAD_REACTORS
330
C
102
}
330
C
100
AcDbDictionary
281
     1
  0
DICTIONARY
  5
17
102
{ACAD_REACTORS
330
C
102
}
330
C
100
AcDbDictionary
281
     1
  3
Standard
350
18
  0
DICTIONARY
  5
19
102
{ACAD_REACTORS
330
C
102
}
330
C
100
AcDbDictionary
281
     1
  0
ACDBDICTIONARYWDFLT
  5
E
102
{ACAD_REACTORS
330
C
102
}
330
C
100
AcDbDictionary
281
     1
  3
Normal
350
F
100
AcDbDictionaryWithDefault
340
F
  0
DICTIONARY
  5
2C5
102
{ACAD_REACTORS
330
C
102
}
330
C
100
AcDbDictionary
281
     1
  0
DICTIONARY
  5
2A
102
{ACAD_REACTORS
330
C
102
}
330
C
100
AcDbDictionary
281
     1
  3
2dWireframe
350
2F
  3
3D Hidden
350
31
  3
3dWireframe
350
30
  3
Basic
350
32
  3
Brighten
350
36
  3
ColorChange
350
3A
  3
Conceptual
350
34
  3
Dim
350
35
  3
Facepattern
350
39
  3
Flat
350
2B
  3
FlatWithEdges
350
2C
  3
Gouraud
350
2D
  3
GouraudWithEdges
350
2E
  3
Linepattern
350
38
  3
Realistic
350
33
  3
Thicken
350
37
  0
LAYOUT
  5
1E
102
{ACAD_REACTORS
330
1A
102
}
330
1A
100
AcDbPlotSettings
  1

  2
none_device
  4

  6

 40
0.0
 41
0.0
 42
0.0
 43
0.0
 44
0.0
 45
0.0
 46
0.0
 47
0.0
 48
0.0
 49
0.0
140
0.0
141
0.0
142
1.0
143
1.0
 70
   688
 72
     0
 73
     0
 74
     5
  7

 75
    16
 76
     0
 77
     2
 78
   300
147
1.0
148
0.0
149
0.0
100
AcDbLayout
  1
Layout1
 70
     1
 71
     1
 10
0.0
 20
0.0
 11
1189.0
 21
841.0
 12
0.0
 22
0.0
 32
0.0
 14
0.0
 24
0.0
 34
0.0
 15
1189.0
 25
841.0
 35
0.0
146
0.0
 13
0.0
 23
0.0
 33
0.0
 16
1.0
 26
0.0
 36
0.0
 17
0.0
 27
1.0
 37
0.0
 76
     0
330
1B
331
3F
  0
LAYOUT
  5
26
102
{ACAD_REACTORS
330
1A
102
}
330
1A
100
AcDbPlotSettings
  1

  2
none_device
  4

  6

 40
0.0
 41
0.0
 42
0.0
 43
0.0
 44
0.0
 45
0.0
 46
0.0
 47
0.0
 48
0.0
 49
0.0
140
0.0
141
0.0
142
1.0
143
1.0
 70
   688
 72
     0
 73
     0
 74
     5
  7

 75
    16
 76
     0
 77
     2
 78
   300
147
1.0
148
0.0
149
0.0
100
AcDbLayout
  1
Layout2
 70
     1
 71
     2
 10
0.0
 20
0.0
 11
0.0
 21
0.0
 12
0.0
 22
0.0
 32
0.0
 14
0.0
 24
0.0
 34
0.0
 15
0.0
 25
0.0
 35
0.0
146
0.0
 13
0.0
 23
0.0
 33
0.0
 16
1.0
 26
0.0
 36
0.0
 17
0.0
 27
1.0
 37
0.0
 76
     0
330
23
  0
LAYOUT
  5
22
102
{ACAD_REACTORS
330
1A
102
}
330
1A
100
AcDbPlotSettings
  1

  2
none_device
  4

  6

 40
0.0
 41
0.0
 42
0.0
 43
0.0
 44
0.0
 45
0.0
 46
0.0
 47
0.0
 48
0.0
 49
0.0
140
0.0
141
0.0
142
1.0
143
1.0
 70
  1712
 72
     0
 73
     0
 74
     0
  7

 75
     0
 76
     0
 77
     2
 78
   300
147
1.0
148
0.0
149
0.0
100
AcDbLayout
  1
Model
 70
     1
 71
     0
 10
0.0
 20
0.0
 11
1189.0
 21
841.0
 12
0.0
 22
0.0
 32
0.0
 14
21.69687882308179
 24
58.85692068429239
 34
0.0
 15
1154.99281977627
 25
745.5532659409022
 35
0.0
146
0.0
 13
0.0
 23
0.0
 33
0.0
 16
1.0
 26
0.0
 36
0.0
 17
0.0
 27
1.0
 37
0.0
 76
     0
330
1F
331
29
  0
MATERIAL
  5
3D
102
{ACAD_REACTORS
330
3B
102
}
330
3B
100
AcDbMaterial
  1
ByBlock
 72
     1
 94
      127
  0
MATERIAL
  5
3C
102
{ACAD_REACTORS
330
3B
102
}
330
3B
100
AcDbMaterial
  1
ByLayer
 72
     1
 94
      127
  0
MATERIAL
  5
3E
102
{ACAD_REACTORS
330
3B
102
}
330
3B
100
AcDbMaterial
  1
Global
 72
     1
 94
      127
  0
MLINESTYLE
  5
18
102
{ACAD_REACTORS
330
17
102
}
330
17
100
AcDbMlineStyle
  2
Standard
 70
     0
  3

 62
   256
 51
90.0
 52
90.0
 71
     2
 49
0.5
 62
   256
  6
BYLAYER
 49
-0.5
 62
   256
  6
BYLAYER
  0
ACDBPLACEHOLDER
  5
F
102
{ACAD_REACTORS
330
E
102
}
330
E
  0
VISUALSTYLE
  5
2F
102
{ACAD_REACTORS
330
2A
102
}
102
{ACAD_XDICTIONARY
360
2AD
102
}
330
2A
100
AcDbVisualStyle
  2
2dWireframe
 70
     4
 71
     0
 72
     2
 73
     0
 90
        0
 40
-0.6
 41
-30.0
 62
     5
 63
     7
421
 16777215
 74
     1
 91
        4
 64
     7
 65
   257
 75
     1
175
     1
 42
1.0
 92
        0
 66
   257
 43
1.0
 76
     1
 77
     6
 78
     2
 67
     7
 79
     5
170
     0
171
     0
290
     0
174
     0
 93
        1
 44
0.0
173
     0
291
     0
 45
0.0
  0
VISUALSTYLE
  5
31
102
{ACAD_REACTORS
330
2A
102
}
102
{ACAD_XDICTIONARY
360
2B1
102
}
330
2A
100
AcDbVisualStyle
  2
3D Hidden
 70
     6
 71
     1
 72
     2
 73
     2
 90
        0
 40
-0.6
 41
-30.0
 62
     5
 63
     7
421
 16777215
 74
     2
 91
        2
 64
     7
 65
   257
 75
     2
175
     1
 42
40.0
 92
        0
 66
   257
 43
1.0
 76
     1
 77
     6
 78
     2
 67
     7
 79
     3
170
     0
171
     0
290
     0
174
     0
 93
        1
 44
0.0
173
     0
291
     0
 45
0.0
  0
VISUALSTYLE
  5
30
102
{ACAD_REACTORS
330
2A
102
}
102
{ACAD_XDICTIONARY
360
2AF
102
}
330
2A
100
AcDbVisualStyle
  2
3dWireframe
 70
     5
 71
     0
 72
     2
 73
     0
 90
        0
 40
-0.6
 41
-30.0
 62
     5
 63
     7
421
 16777215
 74
     1
 91
        4
 64
     7
 65
   257
 75
     1
175
     1
 42
1.0
 92
        0
 66
   257
 43
1.0
 76
     1
 77
     6
 78
     2
 67
     7
 79
     5
170
     0
171
     0
290
     0
174
     0
 93
        1
 44
0.0
173
     0
291
     0
 45
0.0
  0
VISUALSTYLE
  5
32
102
{ACAD_REACTORS
330
2A
102
}
102
{ACAD_XDICTIONARY
360
2B3
102
}
330
2A
100
AcDbVisualStyle
  2
Basic
 70
     7
 71
     1
 72
     0
 73
     1
 90
        0
 40
-0.6
 41
-30.0
 62
     5
 63
     7
421
 16777215
 74
     0
 91
        4
 64
     7
 65
   257
 75
     1
175
     1
 42
1.0
 92
        8
 66
     7
 43
1.0
 76
     1
 77
     6
 78
     2
 67
     7
 79
     5
170
     0
171
     0
290
     0
174
     0
 93
        1
 44
0.0
173
     0
291
     1
 45
0.0
  0
VISUALSTYLE
  5
36
102
{ACAD_REACTORS
330
2A
102
}
102
{ACAD_XDICTIONARY
360
2BB
102
}
330
2A
100
AcDbVisualStyle
  2
Brighten
 70
    12
 71
     2
 72
     2
 73
     0
 90
        0
 40
-0.6
 41
-30.0
 62
     5
 63
     7
421
 16777215
 74
     1
 91
        4
 64
     7
 65
   257
 75
     1
175
     1
 42
1.0
 92
        8
 66
     7
 43
1.0
 76
     1
 77
     6
 78
     2
 67
     7
 79
     5
170
     0
171
     0
290
     0
174
     0
 93
        1
 44
50.0
173
     0
291
     1
 45
0.0
  0
VISUALSTYLE
  5
3A
102
{ACAD_REACTORS
330
2A
102
}
102
{ACAD_XDICTIONARY
360
2C3
102
}
330
2A
100
AcDbVisualStyle
  2
ColorChange
 70
    16
 71
     2
 72
     2
 73
     3
 90
        0
 40
-0.6
 41
-30.0
 62
     5
 63
     8
421
  8421504
 74
     1
 91
        4
 64
     7
 65
   257
 75
     1
175
     1
 42
1.0
 92
        8
 66
     8
424
  8421504
 43
1.0
 76
     1
 77
     6
 78
     2
 67
     7
 79
     5
170
     0
171
     0
290
     0
174
     0
 93
        1
 44
0.0
173
     0
291
     1
 45
0.0
  0
VISUALSTYLE
  5
34
102
{ACAD_REACTORS
330
2A
102
}
102
{ACAD_XDICTIONARY
360
2B7
102
}
330
2A
100
AcDbVisualStyle
  2
Conceptual
 70
     9
 71
     3
 72
     2
 73
     0
 90
        0
 40
-0.6
 41
-30.0
 62
     5
 63
     7
421
 16777215
 74
     2
 91
        2
 64
     7
 65
   257
 75
     1
175
     1
 42
40.0
 92
        8
 66
     7
 43
1.0
 76
     1
 77
     6
 78
     2
 67
     7
 79
     3
170
     0
171
     0
290
     0
174
     0
 93
        1
 44
0.0
173
     0
291
     0
 45
0.0
  0
VISUALSTYLE
  5
35
102
{ACAD_REACTORS
330
2A
102
}
102
{ACAD_XDICTIONARY
360
2B9
102
}
330
2A
100
AcDbVisualStyle
  2
Dim
 70
    11
 71
     2
 72
     2
 73
     0
 90
        0
 40
-0.6
 41
-30.0
 62
     5
 63
     7
421
 16777215
 74
     1
 91
        4
 64
     7
 65
   257
 75
     1
175
     1
 42
1.0
 92
        8
 66
     7
 43
1.0
 76
     1
 77
     6
 78
     2
 67
     7
 79
     5
170
     0
171
     0
290
     0
174
     0
 93
        1
 44
-50.0
173
     0
291
     1
 45
0.0
  0
VISUALSTYLE
  5
39
102
{ACAD_REACTORS
330
2A
102
}
102
{ACAD_XDICTIONARY
360
2C1
102
}
330
2A
100
AcDbVisualStyle
  2
Facepattern
 70
    15
 71
     2
 72
     2
 73
     0
 90
        0
 40
-0.6
 41
-30.0
 62
     5
 63
     7
421
 16777215
 74
     1
 91
        4
 64
     7
 65
   257
 75
     1
175
     1
 42
1.0
 92
        8
 66
     7
 43
1.0
 76
     1
 77
     6
 78
     2
 67
     7
 79
     5
170
     0
171
     0
290
     0
174
     0
 93
        1
 44
0.0
173
     0
291
     1
 45
0.0
  0
VISUALSTYLE
  5
2B
102
{ACAD_REACTORS
330
2A
102
}
102
{ACAD_XDICTIONARY
360
2A5
102
}
330
2A
100
AcDbVisualStyle
  2
Flat
 70
     0
 71
     2
 72
     1
 73
     1
 90
        2
 40
-0.6
 41
30.0
 62
     5
 63
     7
421
 16777215
 74
     0
 91
        4
 64
     7
 65
   257
 75
     1
175
     1
 42
1.0
 92
        8
 66
     7
 43
1.0
 76
     1
 77
     6
 78
     2
 67
     7
 79
     5
170
     0
171
     0
290
     0
174
     0
 93
       13
 44
0.0
173
     0
291
     1
 45
0.0
  0
VISUALSTYLE
  5
2C
102
{ACAD_REACTORS
330
2A
102
}
102
{ACAD_XDICTIONARY
360
2A7
102
}
330
2A
100
AcDbVisualStyle
  2
FlatWithEdges
 70
     1
 71
     2
 72
     1
 73
     1
 90
        2
 40
-0.6
 41
30.0
 62
     5
 63
     7
421
 16777215
 74
     1
 91
        4
 64
     7
 65
   257
 75
     1
175
     1
 42
1.0
 92
        0
 66
   257
 43
1.0
 76
     1
 77
     6
 78
     2
 67
     7
 79
     5
170
     0
171
     0
290
     0
174
     0
 93
       13
 44
0.0
173
     0
291
     1
 45
0.0
  0
VISUALSTYLE
  5
2D
102
{ACAD_REACTORS
330
2A
102
}
102
{ACAD_XDICTIONARY
360
2A9
102
}
330
2A
100
AcDbVisualStyle
  2
Gouraud
 70
     2
 71
     2
 72
     2
 73
     1
 90
        2
 40
-0.6
 41
30.0
 62
     5
 63
     7
421
 16777215
 74
     0
 91
        4
 64
     7
 65
   257
 75
     1
175
     1
 42
1.0
 92
        0
 66
     7
 43
1.0
 76
     1
 77
     6
 78
     2
 67
     7
 79
     5
170
     0
171
     0
290
     0
174
     0
 93
       13
 44
0.0
173
     0
291
     1
 45
0.0
  0
VISUALSTYLE
  5
2E
102
{ACAD_REACTORS
330
2A
102
}
102
{ACAD_XDICTIONARY
360
2AB
102
}
330
2A
100
AcDbVisualStyle
  2
GouraudWithEdges
 70
     3
 71
     2
 72
     2
 73
     1
 90
        2
 40
-0.6
 41
30.0
 62
     5
 63
     7
421
 16777215
 74
     1
 91
        4
 64
     7
 65
   257
 75
     1
175
     1
 42
1.0
 92
        0
 66
   257
 43
1.0
 76
     1
 77
     6
 78
     2
 67
     7
 79
     5
170
     0
171
     0
290
     0
174
     0
 93
       13
 44
0.0
173
     0
291
     1
 45
0.0
  0
VISUALSTYLE
  5
38
102
{ACAD_REACTORS
330
2A
102
}
102
{ACAD_XDICTIONARY
360
2BF
102
}
330
2A
100
AcDbVisualStyle
  2
Linepattern
 70
    14
 71
     2
 72
     2
 73
     0
 90
        0
 40
-0.6
 41
-30.0
 62
     5
 63
     7
421
 16777215
 74
     1
 91
        4
 64
     7
 65
   257
 75
     7
175
     7
 42
1.0
 92
        8
 66
     7
 43
1.0
 76
     1
 77
     6
 78
     2
 67
     7
 79
     5
170
     0
171
     0
290
     0
174
     0
 93
        1
 44
0.0
173
     0
291
     1
 45
0.0
  0
VISUALSTYLE
  5
33
102
{ACAD_REACTORS
330
2A
102
}
102
{ACAD_XDICTIONARY
360
2B5
102
}
330
2A
100
AcDbVisualStyle
  2
Realistic
 70
     8
 71
     2
 72
     2
 73
     0
 90
        0
 40
-0.6
 41
-30.0
 62
     5
 63
     7
421
 16777215
 74
     1
 91
        0
 64
     7
 65
   257
 75
     1
175
     1
 42
1.0
 92
        8
 66
     8
424
  7895160
 43
1.0
 76
     1
 77
     6
 78
     2
 67
     7
 79
     5
170
     0
171
     0
290
     0
174
     0
 93
       13
 44
0.0
173
     0
291
     0
 45
0.0
  0
VISUALSTYLE
  5
37
102
{ACAD_REACTORS
330
2A
102
}
102
{ACAD_XDICTIONARY
360
2BD
102
}
330
2A
100
AcDbVisualStyle
  2
Thicken
 70
    13
 71
     2
 72
     2
 73
     0
 90
        0
 40
-0.6
 41
-30.0
 62
     5
 63
     7
421
 16777215
 74
     1
 91
        4
 64
     7
 65
   257
 75
     1
175
     1
 42
1.0
 92
       12
 66
     7
 43
1.0
 76
     1
 77
     6
 78
     2
 67
     7
 79
     5
170
     0
171
     0
290
     0
174
     0
 93
        1
 44
0.0
173
     0
291
     1
 45
0.0
  0
DICTIONARY
  5
2AD
330
2F
100
AcDbDictionary
280
     1
281
     1
  3
ACAD_XREC_ROUNDTRIP
360
2AE
  0
DICTIONARY
  5
2B1
330
31
100
AcDbDictionary
280
     1
281
     1
  3
ACAD_XREC_ROUNDTRIP
360
2B2
  0
DICTIONARY
  5
2AF
330
30
100
AcDbDictionary
280
     1
281
     1
  3
ACAD_XREC_ROUNDTRIP
360
2B0
  0
DICTIONARY
  5
2B3
330
32
100
AcDbDictionary
280
     1
281
     1
  3
ACAD_XREC_ROUNDTRIP
360
2B4
  0
DICTIONARY
  5
2BB
330
36
100
AcDbDictionary
280
     1
281
     1
  3
ACAD_XREC_ROUNDTRIP
360
2BC
  0
DICTIONARY
  5
2C3
330
3A
100
AcDbDictionary
280
     1
281
     1
  3
ACAD_XREC_ROUNDTRIP
360
2C4
  0
DICTIONARY
  5
2B7
330
34
100
AcDbDictionary
280
     1
281
     1
  3
ACAD_XREC_ROUNDTRIP
360
2B8
  0
DICTIONARY
  5
2B9
330
35
100
AcDbDictionary
280
     1
281
     1
  3
ACAD_XREC_ROUNDTRIP
360
2BA
  0
DICTIONARY
  5
2C1
330
39
100
AcDbDictionary
280
     1
281
     1
  3
ACAD_XREC_ROUNDTRIP
360
2C2
  0
DICTIONARY
  5
2A5
330
2B
100
AcDbDictionary
280
     1
281
     1
  3
ACAD_XREC_ROUNDTRIP
360
2A6
  0
DICTIONARY
  5
2A7
330
2C
100
AcDbDictionary
280
     1
281
     1
  3
ACAD_XREC_ROUNDTRIP
360
2A8
  0
DICTIONARY
  5
2A9
330
2D
100
AcDbDictionary
280
     1
281
     1
  3
ACAD_XREC_ROUNDTRIP
360
2AA
  0
DICTIONARY
  5
2AB
330
2E
100
AcDbDictionary
280
     1
281
     1
  3
ACAD_XREC_ROUNDTRIP
360
2AC
  0
DICTIONARY
  5
2BF
330
38
100
AcDbDictionary
280
     1
281
     1
  3
ACAD_XREC_ROUNDTRIP
360
2C0
  0
DICTIONARY
  5
2B5
330
33
100
AcDbDictionary
280
     1
281
     1
  3
ACAD_XREC_ROUNDTRIP
360
2B6
  0
DICTIONARY
  5
2BD
330
37
100
AcDbDictionary
280
     1
281
     1
  3
ACAD_XREC_ROUNDTRIP
360
2BE
  0
XRECORD
  5
2AE
102
{ACAD_REACTORS
330
2AD
102
}
330
2AD
100
AcDbXrecord
280
     1
102
RTVSPropertyOp0
 70
     1
102
RTVSPropertyOp1
 70
     1
102
RTVSPropertyOp2
 70
     1
102
RTVSPropertyOp3
 70
     1
102
RTVSPropertyOp4
 70
     1
102
RTVSPropertyOp5
 70
     1
102
RTVSPropertyOp6
 70
     1
102
RTVSPropertyOp7
 70
     1
102
RTVSPropertyOp8
 70
     1
102
RTVSPropertyOp9
 70
     1
102
RTVSPropertyOp10
 70
     1
102
RTVSPropertyOp11
 70
     1
102
RTVSPropertyOp12
 70
     1
102
RTVSPropertyOp13
 70
     1
102
RTVSPropertyOp14
 70
     1
102
RTVSPropertyOp15
 70
     1
102
RTVSPropertyOp16
 70
     1
102
RTVSPropertyOp17
 70
     1
102
RTVSPropertyOp18
 70
     1
102
RTVSPropertyOp19
 70
     1
102
RTVSPropertyOp20
 70
     1
102
RTVSPropertyOp21
 70
     1
102
RTVSPropertyOp22
 70
     1
102
RTVSPropertyOp23
 70
     1
102
RTVSPropertyOp24
 70
     1
102
RTVSPropertyOp25
 70
     1
102
RTVSPropertyOp26
 70
     1
102
RTVSPropertyOp27
 70
     1
102
RTVSPropertyOp28
 70
     1
102
RTVSPropertyOp29
 70
     1
102
RTVSPropertyOp30
 70
     1
102
RTVSPropertyOp31
 70
     1
102
RTVSPropertyOp32
 70
     1
  0
XRECORD
  5
2B2
102
{ACAD_REACTORS
330
2B1
102
}
330
2B1
100
AcDbXrecord
280
     1
102
RTVSPropertyOp0
 70
     1
102
RTVSPropertyOp1
 70
     1
102
RTVSPropertyOp2
 70
     1
102
RTVSPropertyOp3
 70
     1
102
RTVSPropertyOp4
 70
     1
102
RTVSPropertyOp5
 70
     1
102
RTVSPropertyOp6
 70
     1
102
RTVSPropertyOp7
 70
     1
102
RTVSPropertyOp8
 70
     1
102
RTVSPropertyOp9
 70
     1
102
RTVSPropertyOp10
 70
     1
102
RTVSPropertyOp11
 70
     1
102
RTVSPropertyOp12
 70
     1
102
RTVSPropertyOp13
 70
     1
102
RTVSPropertyOp14
 70
     1
102
RTVSPropertyOp15
 70
     1
102
RTVSPropertyOp16
 70
     1
102
RTVSPropertyOp17
 70
     1
102
RTVSPropertyOp18
 70
     1
102
RTVSPropertyOp19
 70
     1
102
RTVSPropertyOp20
 70
     1
102
RTVSPropertyOp21
 70
     1
102
RTVSPropertyOp22
 70
     1
102
RTVSPropertyOp23
 70
     1
102
RTVSPropertyOp24
 70
     1
102
RTVSPropertyOp25
 70
     1
102
RTVSPropertyOp26
 70
     1
102
RTVSPropertyOp27
 70
     1
102
RTVSPropertyOp28
 70
     1
102
RTVSPropertyOp29
 70
     1
102
RTVSPropertyOp30
 70
     1
102
RTVSPropertyOp31
 70
     1
102
RTVSPropertyOp32
 70
     1
  0
XRECORD
  5
2B0
102
{ACAD_REACTORS
330
2AF
102
}
330
2AF
100
AcDbXrecord
280
     1
102
RTVSPropertyOp0
 70
     1
102
RTVSPropertyOp1
 70
     1
102
RTVSPropertyOp2
 70
     1
102
RTVSPropertyOp3
 70
     1
102
RTVSPropertyOp4
 70
     1
102
RTVSPropertyOp5
 70
     1
102
RTVSPropertyOp6
 70
     1
102
RTVSPropertyOp7
 70
     1
102
RTVSPropertyOp8
 70
     1
102
RTVSPropertyOp9
 70
     1
102
RTVSPropertyOp10
 70
     1
102
RTVSPropertyOp11
 70
     1
102
RTVSPropertyOp12
 70
     1
102
RTVSPropertyOp13
 70
     1
102
RTVSPropertyOp14
 70
     1
102
RTVSPropertyOp15
 70
     1
102
RTVSPropertyOp16
 70
     1
102
RTVSPropertyOp17
 70
     1
102
RTVSPropertyOp18
 70
     1
102
RTVSPropertyOp19
 70
     1
102
RTVSPropertyOp20
 70
     1
102
RTVSPropertyOp21
 70
     1
102
RTVSPropertyOp22
 70
     1
102
RTVSPropertyOp23
 70
     1
102
RTVSPropertyOp24
 70
     1
102
RTVSPropertyOp25
 70
     1
102
RTVSPropertyOp26
 70
     1
102
RTVSPropertyOp27
 70
     1
102
RTVSPropertyOp28
 70
     1
102
RTVSPropertyOp29
 70
     1
102
RTVSPropertyOp30
 70
     1
102
RTVSPropertyOp31
 70
     1
102
RTVSPropertyOp32
 70
     1
  0
XRECORD
  5
2B4
102
{ACAD_REACTORS
330
2B3
102
}
330
2B3
100
AcDbXrecord
280
     1
102
RTVSPropertyOp0
 70
     1
102
RTVSPropertyOp1
 70
     1
102
RTVSPropertyOp2
 70
     1
102
RTVSPropertyOp3
 70
     1
102
RTVSPropertyOp4
 70
     1
102
RTVSPropertyOp5
 70
     1
102
RTVSPropertyOp6
 70
     1
102
RTVSPropertyOp7
 70
     1
102
RTVSPropertyOp8
 70
     1
102
RTVSPropertyOp9
 70
     1
102
RTVSPropertyOp10
 70
     1
102
RTVSPropertyOp11
 70
     1
102
RTVSPropertyOp12
 70
     1
102
RTVSPropertyOp13
 70
     1
102
RTVSPropertyOp14
 70
     1
102
RTVSPropertyOp15
 70
     1
102
RTVSPropertyOp16
 70
     1
102
RTVSPropertyOp17
 70
     1
102
RTVSPropertyOp18
 70
     1
102
RTVSPropertyOp19
 70
     1
102
RTVSPropertyOp20
 70
     1
102
RTVSPropertyOp21
 70
     1
102
RTVSPropertyOp22
 70
     1
102
RTVSPropertyOp23
 70
     1
102
RTVSPropertyOp24
 70
     1
102
RTVSPropertyOp25
 70
     1
102
RTVSPropertyOp26
 70
     1
102
RTVSPropertyOp27
 70
     1
102
RTVSPropertyOp28
 70
     1
102
RTVSPropertyOp29
 70
     1
102
RTVSPropertyOp30
 70
     1
102
RTVSPropertyOp31
 70
     1
102
RTVSPropertyOp32
 70
     1
  0
XRECORD
  5
2BC
102
{ACAD_REACTORS
330
2BB
102
}
330
2BB
100
AcDbXrecord
280
     1
102
RTVSPropertyOp0
 70
     1
102
RTVSPropertyOp1
 70
     1
102
RTVSPropertyOp2
 70
     1
102
RTVSPropertyOp3
 70
     1
102
RTVSPropertyOp4
 70
     1
102
RTVSPropertyOp5
 70
     1
102
RTVSPropertyOp6
 70
     1
102
RTVSPropertyOp7
 70
     1
102
RTVSPropertyOp8
 70
     1
102
RTVSPropertyOp9
 70
     1
102
RTVSPropertyOp10
 70
     1
102
RTVSPropertyOp11
 70
     1
102
RTVSPropertyOp12
 70
     1
102
RTVSPropertyOp13
 70
     1
102
RTVSPropertyOp14
 70
     1
102
RTVSPropertyOp15
 70
     1
102
RTVSPropertyOp16
 70
     1
102
RTVSPropertyOp17
 70
     1
102
RTVSPropertyOp18
 70
     1
102
RTVSPropertyOp19
 70
     1
102
RTVSPropertyOp20
 70
     1
102
RTVSPropertyOp21
 70
     1
102
RTVSPropertyOp22
 70
     1
102
RTVSPropertyOp23
 70
     1
102
RTVSPropertyOp24
 70
     1
102
RTVSPropertyOp25
 70
     1
102
RTVSPropertyOp26
 70
     1
102
RTVSPropertyOp27
 70
     1
102
RTVSPropertyOp28
 70
     1
102
RTVSPropertyOp29
 70
     1
102
RTVSPropertyOp30
 70
     1
102
RTVSPropertyOp31
 70
     1
102
RTVSPropertyOp32
 70
     1
  0
XRECORD
  5
2C4
102
{ACAD_REACTORS
330
2C3
102
}
330
2C3
100
AcDbXrecord
280
     1
102
RTVSPropertyOp0
 70
     1
102
RTVSPropertyOp1
 70
     1
102
RTVSPropertyOp2
 70
     1
102
RTVSPropertyOp3
 70
     1
102
RTVSPropertyOp4
 70
     1
102
RTVSPropertyOp5
 70
     1
102
RTVSPropertyOp6
 70
     1
102
RTVSPropertyOp7
 70
     1
102
RTVSPropertyOp8
 70
     1
102
RTVSPropertyOp9
 70
     1
102
RTVSPropertyOp10
 70
     1
102
RTVSPropertyOp11
 70
     1
102
RTVSPropertyOp12
 70
     1
102
RTVSPropertyOp13
 70
     1
102
RTVSPropertyOp14
 70
     1
102
RTVSPropertyOp15
 70
     1
102
RTVSPropertyOp16
 70
     1
102
RTVSPropertyOp17
 70
     1
102
RTVSPropertyOp18
 70
     1
102
RTVSPropertyOp19
 70
     1
102
RTVSPropertyOp20
 70
     1
102
RTVSPropertyOp21
 70
     1
102
RTVSPropertyOp22
 70
     1
102
RTVSPropertyOp23
 70
     1
102
RTVSPropertyOp24
 70
     1
102
RTVSPropertyOp25
 70
     1
102
RTVSPropertyOp26
 70
     1
102
RTVSPropertyOp27
 70
     1
102
RTVSPropertyOp28
 70
     1
102
RTVSPropertyOp29
 70
     1
102
RTVSPropertyOp30
 70
     1
102
RTVSPropertyOp31
 70
     1
102
RTVSPropertyOp32
 70
     1
  0
XRECORD
  5
2B8
102
{ACAD_REACTORS
330
2B7
102
}
330
2B7
100
AcDbXrecord
280
     1
102
RTVSPropertyOp0
 70
     1
102
RTVSPropertyOp1
 70
     1
102
RTVSPropertyOp2
 70
     1
102
RTVSPropertyOp3
 70
     1
102
RTVSPropertyOp4
 70
     1
102
RTVSPropertyOp5
 70
     1
102
RTVSPropertyOp6
 70
     1
102
RTVSPropertyOp7
 70
     1
102
RTVSPropertyOp8
 70
     1
102
RTVSPropertyOp9
 70
     1
102
RTVSPropertyOp10
 70
     1
102
RTVSPropertyOp11
 70
     1
102
RTVSPropertyOp12
 70
     1
102
RTVSPropertyOp13
 70
     1
102
RTVSPropertyOp14
 70
     1
102
RTVSPropertyOp15
 70
     1
102
RTVSPropertyOp16
 70
     1
102
RTVSPropertyOp17
 70
     1
102
RTVSPropertyOp18
 70
     1
102
RTVSPropertyOp19
 70
     1
102
RTVSPropertyOp20
 70
     1
102
RTVSPropertyOp21
 70
     1
102
RTVSPropertyOp22
 70
     1
102
RTVSPropertyOp23
 70
     1
102
RTVSPropertyOp24
 70
     1
102
RTVSPropertyOp25
 70
     1
102
RTVSPropertyOp26
 70
     1
102
RTVSPropertyOp27
 70
     1
102
RTVSPropertyOp28
 70
     1
102
RTVSPropertyOp29
 70
     1
102
RTVSPropertyOp30
 70
     1
102
RTVSPropertyOp31
 70
     1
102
RTVSPropertyOp32
 70
     1
  0
XRECORD
  5
2BA
102
{ACAD_REACTORS
330
2B9
102
}
330
2B9
100
AcDbXrecord
280
     1
102
RTVSPropertyOp0
 70
     1
102
RTVSPropertyOp1
 70
     1
102
RTVSPropertyOp2
 70
     1
102
RTVSPropertyOp3
 70
     1
102
RTVSPropertyOp4
 70
     1
102
RTVSPropertyOp5
 70
     1
102
RTVSPropertyOp6
 70
     1
102
RTVSPropertyOp7
 70
     1
102
RTVSPropertyOp8
 70
     1
102
RTVSPropertyOp9
 70
     1
102
RTVSPropertyOp10
 70
     1
102
RTVSPropertyOp11
 70
     1
102
RTVSPropertyOp12
 70
     1
102
RTVSPropertyOp13
 70
     1
102
RTVSPropertyOp14
 70
     1
102
RTVSPropertyOp15
 70
     1
102
RTVSPropertyOp16
 70
     1
102
RTVSPropertyOp17
 70
     1
102
RTVSPropertyOp18
 70
     1
102
RTVSPropertyOp19
 70
     1
102
RTVSPropertyOp20
 70
     1
102
RTVSPropertyOp21
 70
     1
102
RTVSPropertyOp22
 70
     1
102
RTVSPropertyOp23
 70
     1
102
RTVSPropertyOp24
 70
     1
102
RTVSPropertyOp25
 70
     1
102
RTVSPropertyOp26
 70
     1
102
RTVSPropertyOp27
 70
     1
102
RTVSPropertyOp28
 70
     1
102
RTVSPropertyOp29
 70
     1
102
RTVSPropertyOp30
 70
     1
102
RTVSPropertyOp31
 70
     1
102
RTVSPropertyOp32
 70
     1
  0
XRECORD
  5
2C2
102
{ACAD_REACTORS
330
2C1
102
}
330
2C1
100
AcDbXrecord
280
     1
102
RTVSPropertyOp0
 70
     1
102
RTVSPropertyOp1
 70
     1
102
RTVSPropertyOp2
 70
     1
102
RTVSPropertyOp3
 70
     1
102
RTVSPropertyOp4
 70
     1
102
RTVSPropertyOp5
 70
     1
102
RTVSPropertyOp6
 70
     1
102
RTVSPropertyOp7
 70
     1
102
RTVSPropertyOp8
 70
     1
102
RTVSPropertyOp9
 70
     1
102
RTVSPropertyOp10
 70
     1
102
RTVSPropertyOp11
 70
     1
102
RTVSPropertyOp12
 70
     1
102
RTVSPropertyOp13
 70
     1
102
RTVSPropertyOp14
 70
     1
102
RTVSPropertyOp15
 70
     1
102
RTVSPropertyOp16
 70
     1
102
RTVSPropertyOp17
 70
     1
102
RTVSPropertyOp18
 70
     1
102
RTVSPropertyOp19
 70
     1
102
RTVSPropertyOp20
 70
     1
102
RTVSPropertyOp21
 70
     1
102
RTVSPropertyOp22
 70
     1
102
RTVSPropertyOp23
 70
     1
102
RTVSPropertyOp24
 70
     1
102
RTVSPropertyOp25
 70
     1
102
RTVSPropertyOp26
 70
     1
102
RTVSPropertyOp27
 70
     1
102
RTVSPropertyOp28
 70
     1
102
RTVSPropertyOp29
 70
     1
102
RTVSPropertyOp30
 70
     1
102
RTVSPropertyOp31
 70
     1
102
RTVSPropertyOp32
 70
     1
  0
XRECORD
  5
2A6
102
{ACAD_REACTORS
330
2A5
102
}
330
2A5
100
AcDbXrecord
280
     1
102
RTVSPropertyOp0
 70
     1
102
RTVSPropertyOp1
 70
     1
102
RTVSPropertyOp2
 70
     1
102
RTVSPropertyOp3
 70
     1
102
RTVSPropertyOp4
 70
     1
102
RTVSPropertyOp5
 70
     1
102
RTVSPropertyOp6
 70
     1
102
RTVSPropertyOp7
 70
     1
102
RTVSPropertyOp8
 70
     1
102
RTVSPropertyOp9
 70
     1
102
RTVSPropertyOp10
 70
     1
102
RTVSPropertyOp11
 70
     1
102
RTVSPropertyOp12
 70
     1
102
RTVSPropertyOp13
 70
     1
102
RTVSPropertyOp14
 70
     1
102
RTVSPropertyOp15
 70
     1
102
RTVSPropertyOp16
 70
     1
102
RTVSPropertyOp17
 70
     1
102
RTVSPropertyOp18
 70
     1
102
RTVSPropertyOp19
 70
     1
102
RTVSPropertyOp20
 70
     1
102
RTVSPropertyOp21
 70
     1
102
RTVSPropertyOp22
 70
     1
102
RTVSPropertyOp23
 70
     1
102
RTVSPropertyOp24
 70
     1
102
RTVSPropertyOp25
 70
     1
102
RTVSPropertyOp26
 70
     1
102
RTVSPropertyOp27
 70
     1
102
RTVSPropertyOp28
 70
     1
102
RTVSPropertyOp29
 70
     1
102
RTVSPropertyOp30
 70
     1
102
RTVSPropertyOp31
 70
     1
102
RTVSPropertyOp32
 70
     1
  0
XRECORD
  5
2A8
102
{ACAD_REACTORS
330
2A7
102
}
330
2A7
100
AcDbXrecord
280
     1
102
RTVSPropertyOp0
 70
     1
102
RTVSPropertyOp1
 70
     1
102
RTVSPropertyOp2
 70
     1
102
RTVSPropertyOp3
 70
     1
102
RTVSPropertyOp4
 70
     1
102
RTVSPropertyOp5
 70
     1
102
RTVSPropertyOp6
 70
     1
102
RTVSPropertyOp7
 70
     1
102
RTVSPropertyOp8
 70
     1
102
RTVSPropertyOp9
 70
     1
102
RTVSPropertyOp10
 70
     1
102
RTVSPropertyOp11
 70
     1
102
RTVSPropertyOp12
 70
     1
102
RTVSPropertyOp13
 70
     1
102
RTVSPropertyOp14
 70
     1
102
RTVSPropertyOp15
 70
     1
102
RTVSPropertyOp16
 70
     1
102
RTVSPropertyOp17
 70
     1
102
RTVSPropertyOp18
 70
     1
102
RTVSPropertyOp19
 70
     1
102
RTVSPropertyOp20
 70
     1
102
RTVSPropertyOp21
 70
     1
102
RTVSPropertyOp22
 70
     1
102
RTVSPropertyOp23
 70
     1
102
RTVSPropertyOp24
 70
     1
102
RTVSPropertyOp25
 70
     1
102
RTVSPropertyOp26
 70
     1
102
RTVSPropertyOp27
 70
     1
102
RTVSPropertyOp28
 70
     1
102
RTVSPropertyOp29
 70
     1
102
RTVSPropertyOp30
 70
     1
102
RTVSPropertyOp31
 70
     1
102
RTVSPropertyOp32
 70
     1
  0
XRECORD
  5
2AA
102
{ACAD_REACTORS
330
2A9
102
}
330
2A9
100
AcDbXrecord
280
     1
102
RTVSPropertyOp0
 70
     1
102
RTVSPropertyOp1
 70
     1
102
RTVSPropertyOp2
 70
     1
102
RTVSPropertyOp3
 70
     1
102
RTVSPropertyOp4
 70
     1
102
RTVSPropertyOp5
 70
     1
102
RTVSPropertyOp6
 70
     1
102
RTVSPropertyOp7
 70
     1
102
RTVSPropertyOp8
 70
     1
102
RTVSPropertyOp9
 70
     1
102
RTVSPropertyOp10
 70
     1
102
RTVSPropertyOp11
 70
     1
102
RTVSPropertyOp12
 70
     1
102
RTVSPropertyOp13
 70
     1
102
RTVSPropertyOp14
 70
     1
102
RTVSPropertyOp15
 70
     1
102
RTVSPropertyOp16
 70
     1
102
RTVSPropertyOp17
 70
     1
102
RTVSPropertyOp18
 70
     1
102
RTVSPropertyOp19
 70
     1
102
RTVSPropertyOp20
 70
     1
102
RTVSPropertyOp21
 70
     1
102
RTVSPropertyOp22
 70
     1
102
RTVSPropertyOp23
 70
     1
102
RTVSPropertyOp24
 70
     1
102
RTVSPropertyOp25
 70
     1
102
RTVSPropertyOp26
 70
     1
102
RTVSPropertyOp27
 70
     1
102
RTVSPropertyOp28
 70
     1
102
RTVSPropertyOp29
 70
     1
102
RTVSPropertyOp30
 70
     1
102
RTVSPropertyOp31
 70
     1
102
RTVSPropertyOp32
 70
     1
  0
XRECORD
  5
2AC
102
{ACAD_REACTORS
330
2AB
102
}
330
2AB
100
AcDbXrecord
280
     1
102
RTVSPropertyOp0
 70
     1
102
RTVSPropertyOp1
 70
     1
102
RTVSPropertyOp2
 70
     1
102
RTVSPropertyOp3
 70
     1
102
RTVSPropertyOp4
 70
     1
102
RTVSPropertyOp5
 70
     1
102
RTVSPropertyOp6
 70
     1
102
RTVSPropertyOp7
 70
     1
102
RTVSPropertyOp8
 70
     1
102
RTVSPropertyOp9
 70
     1
102
RTVSPropertyOp10
 70
     1
102
RTVSPropertyOp11
 70
     1
102
RTVSPropertyOp12
 70
     1
102
RTVSPropertyOp13
 70
     1
102
RTVSPropertyOp14
 70
     1
102
RTVSPropertyOp15
 70
     1
102
RTVSPropertyOp16
 70
     1
102
RTVSPropertyOp17
 70
     1
102
RTVSPropertyOp18
 70
     1
102
RTVSPropertyOp19
 70
     1
102
RTVSPropertyOp20
 70
     1
102
RTVSPropertyOp21
 70
     1
102
RTVSPropertyOp22
 70
     1
102
RTVSPropertyOp23
 70
     1
102
RTVSPropertyOp24
 70
     1
102
RTVSPropertyOp25
 70
     1
102
RTVSPropertyOp26
 70
     1
102
RTVSPropertyOp27
 70
     1
102
RTVSPropertyOp28
 70
     1
102
RTVSPropertyOp29
 70
     1
102
RTVSPropertyOp30
 70
     1
102
RTVSPropertyOp31
 70
     1
102
RTVSPropertyOp32
 70
     1
  0
XRECORD
  5
2C0
102
{ACAD_REACTORS
330
2BF
102
}
330
2BF
100
AcDbXrecord
280
     1
102
RTVSPropertyOp0
 70
     1
102
RTVSPropertyOp1
 70
     1
102
RTVSPropertyOp2
 70
     1
102
RTVSPropertyOp3
 70
     1
102
RTVSPropertyOp4
 70
     1
102
RTVSPropertyOp5
 70
     1
102
RTVSPropertyOp6
 70
     1
102
RTVSPropertyOp7
 70
     1
102
RTVSPropertyOp8
 70
     1
102
RTVSPropertyOp9
 70
     1
102
RTVSPropertyOp10
 70
     1
102
RTVSPropertyOp11
 70
     1
102
RTVSPropertyOp12
 70
     1
102
RTVSPropertyOp13
 70
     1
102
RTVSPropertyOp14
 70
     1
102
RTVSPropertyOp15
 70
     1
102
RTVSPropertyOp16
 70
     1
102
RTVSPropertyOp17
 70
     1
102
RTVSPropertyOp18
 70
     1
102
RTVSPropertyOp19
 70
     1
102
RTVSPropertyOp20
 70
     1
102
RTVSPropertyOp21
 70
     1
102
RTVSPropertyOp22
 70
     1
102
RTVSPropertyOp23
 70
     1
102
RTVSPropertyOp24
 70
     1
102
RTVSPropertyOp25
 70
     1
102
RTVSPropertyOp26
 70
     1
102
RTVSPropertyOp27
 70
     1
102
RTVSPropertyOp28
 70
     1
102
RTVSPropertyOp29
 70
     1
102
RTVSPropertyOp30
 70
     1
102
RTVSPropertyOp31
 70
     1
102
RTVSPropertyOp32
 70
     1
  0
XRECORD
  5
2B6
102
{ACAD_REACTORS
330
2B5
102
}
330
2B5
100
AcDbXrecord
280
     1
102
RTVSPropertyOp0
 70
     1
102
RTVSPropertyOp1
 70
     1
102
RTVSPropertyOp2
 70
     1
102
RTVSPropertyOp3
 70
     1
102
RTVSPropertyOp4
 70
     1
102
RTVSPropertyOp5
 70
     1
102
RTVSPropertyOp6
 70
     1
102
RTVSPropertyOp7
 70
     1
102
RTVSPropertyOp8
 70
     1
102
RTVSPropertyOp9
 70
     1
102
RTVSPropertyOp10
 70
     1
102
RTVSPropertyOp11
 70
     1
102
RTVSPropertyOp12
 70
     1
102
RTVSPropertyOp13
 70
     1
102
RTVSPropertyOp14
 70
     1
102
RTVSPropertyOp15
 70
     1
102
RTVSPropertyOp16
 70
     1
102
RTVSPropertyOp17
 70
     1
102
RTVSPropertyOp18
 70
     1
102
RTVSPropertyOp19
 70
     1
102
RTVSPropertyOp20
 70
     1
102
RTVSPropertyOp21
 70
     1
102
RTVSPropertyOp22
 70
     1
102
RTVSPropertyOp23
 70
     1
102
RTVSPropertyOp24
 70
     1
102
RTVSPropertyOp25
 70
     1
102
RTVSPropertyOp26
 70
     1
102
RTVSPropertyOp27
 70
     1
102
RTVSPropertyOp28
 70
     1
102
RTVSPropertyOp29
 70
     1
102
RTVSPropertyOp30
 70
     1
102
RTVSPropertyOp31
 70
     1
102
RTVSPropertyOp32
 70
     1
  0
XRECORD
  5
2BE
102
{ACAD_REACTORS
330
2BD
102
}
330
2BD
100
AcDbXrecord
280
     1
102
RTVSPropertyOp0
 70
     1
102
RTVSPropertyOp1
 70
     1
102
RTVSPropertyOp2
 70
     1
102
RTVSPropertyOp3
 70
     1
102
RTVSPropertyOp4
 70
     1
102
RTVSPropertyOp5
 70
     1
102
RTVSPropertyOp6
 70
     1
102
RTVSPropertyOp7
 70
     1
102
RTVSPropertyOp8
 70
     1
102
RTVSPropertyOp9
 70
     1
102
RTVSPropertyOp10
 70
     1
102
RTVSPropertyOp11
 70
     1
102
RTVSPropertyOp12
 70
     1
102
RTVSPropertyOp13
 70
     1
102
RTVSPropertyOp14
 70
     1
102
RTVSPropertyOp15
 70
     1
102
RTVSPropertyOp16
 70
     1
102
RTVSPropertyOp17
 70
     1
102
RTVSPropertyOp18
 70
     1
102
RTVSPropertyOp19
 70
     1
102
RTVSPropertyOp20
 70
     1
102
RTVSPropertyOp21
 70
     1
102
RTVSPropertyOp22
 70
     1
102
RTVSPropertyOp23
 70
     1
102
RTVSPropertyOp24
 70
     1
102
RTVSPropertyOp25
 70
     1
102
RTVSPropertyOp26
 70
     1
102
RTVSPropertyOp27
 70
     1
102
RTVSPropertyOp28
 70
     1
102
RTVSPropertyOp29
 70
     1
102
RTVSPropertyOp30
 70
     1
102
RTVSPropertyOp31
 70
     1
102
RTVSPropertyOp32
 70
     1
  0
ENDSEC
  0
EOF
