  0
SECTION
  2
HEADER
  9
$ACADVER
  1
AC1021
  9
$ACADMAINTVER
 70
    25
  9
$DWGCODEPAGE
  3
ANSI_932
  9
$INSBASE
 10
0.0
 20
0.0
 30
0.0
  9
$EXTMIN
 10
27.68433171305446
 20
20.30899424423077
 30
0.0
  9
$EXTMAX
 10
1424.020149062291
 20
1143.151922628305
 30
0.0
  9
$LIMMIN
 10
0.0
 20
0.0
  9
$LIMMAX
 10
1189.0
 20
841.0
  9
$ORTHOMODE
 70
     0
  9
$REGENMODE
 70
     1
  9
$FILLMODE
 70
     1
  9
$QTEXTMODE
 70
     0
  9
$MIRRTEXT
 70
     1
  9
$LTSCALE
 40
0.25
  9
$ATTMODE
 70
     1
  9
$TEXTSIZE
 40
5.0
  9
$TRACEWID
 40
0.05
  9
$TEXTSTYLE
  7
Standard
  9
$CLAYER
  8
0
  9
$CELTYPE
  6
ByLayer
  9
$CECOLOR
 62
   256
  9
$CELTSCALE
 40
1.0
  9
$DISPSILH
 70
     0
  9
$DIMSCALE
 40
1.0
  9
$DIMASZ
 40
2.0
  9
$DIMEXO
 40
2.0
  9
$DIMDLI
 40
10.0
  9
$DIMRND
 40
0.0
  9
$DIMDLE
 40
0.0
  9
$DIMEXE
 40
1.5
  9
$DIMTP
 40
0.0
  9
$DIMTM
 40
0.0
  9
$DIMTXT
 40
4.0
  9
$DIMCEN
 40
0.09
  9
$DIMTSZ
 40
0.0
  9
$DIMTOL
 70
     0
  9
$DIMLIM
 70
     0
  9
$DIMTIH
 70
     0
  9
$DIMTOH
 70
     0
  9
$DIMSE1
 70
     0
  9
$DIMSE2
 70
     0
  9
$DIMTAD
 70
     3
  9
$DIMZIN
 70
     8
  9
$DIMBLK
  1

  9
$DIMASO
 70
     1
  9
$DIMSHO
 70
     1
  9
$DIMPOST
  1

  9
$DIMAPOST
  1

  9
$DIMALT
 70
     0
  9
$DIMALTD
 70
     2
  9
$DIMALTF
 40
25.4
  9
$DIMLFAC
 40
1.0
  9
$DIMTOFL
 70
     1
  9
$DIMTVP
 40
0.7
  9
$DIMTIX
 70
     0
  9
$DIMSOXD
 70
     0
  9
$DIMSAH
 70
     0
  9
$DIMBLK1
  1

  9
$DIMBLK2
  1

  9
$DIMSTYLE
  2
Standard
  9
$DIMCLRD
 70
     0
  9
$DIMCLRE
 70
     0
  9
$DIMCLRT
 70
     0
  9
$DIMTFAC
 40
0.5
  9
$DIMGAP
 40
0.09
  9
$DIMJUST
 70
     0
  9
$DIMSD1
 70
     0
  9
$DIMSD2
 70
     0
  9
$DIMTOLJ
 70
     1
  9
$DIMTZIN
 70
     8
  9
$DIMALTZ
 70
     0
  9
$DIMALTTZ
 70
     0
  9
$DIMUPT
 70
     1
  9
$DIMDEC
 70
     2
  9
$DIMTDEC
 70
     4
  9
$DIMALTU
 70
     2
  9
$DIMALTTD
 70
     2
  9
$DIMTXSTY
  7
Standard
  9
$DIMAUNIT
 70
     0
  9
$DIMADEC
 70
     0
  9
$DIMALTRND
 40
0.0
  9
$DIMAZIN
 70
     0
  9
$DIMDSEP
 70
    46
  9
$DIMATFIT
 70
     2
  9
$DIMFRAC
 70
     0
  9
$DIMLDRBLK
  1

  9
$DIMLUNIT
 70
     2
  9
$DIMLWD
 70
    -2
  9
$DIMLWE
 70
    -2
  9
$DIMTMOVE
 70
     2
  9
$DIMFXL
 40
1.0
  9
$DIMFXLON
 70
     0
  9
$DIMJOGANG
 40
0.7853981633974483
  9
$DIMTFILL
 70
     0
  9
$DIMTFILLCLR
 70
     0
  9
$DIMARCSYM
 70
     0
  9
$DIMLTYPE
  6

  9
$DIMLTEX1
  6

  9
$DIMLTEX2
  6

  9
$LUNITS
 70
     2
  9
$LUPREC
 70
     4
  9
$SKETCHINC
 40
0.1
  9
$FILLETRAD
 40
0.5
  9
$AUNITS
 70
     0
  9
$AUPREC
 70
     0
  9
$MENU
  1
.
  9
$ELEVATION
 40
0.0
  9
$PELEVATION
 40
0.0
  9
$THICKNESS
 40
0.0
  9
$LIMCHECK
 70
     0
  9
$CHAMFERA
 40
0.5
  9
$CHAMFERB
 40
0.5
  9
$CHAMFERC
 40
1.0
  9
$CHAMFERD
 40
0.0
  9
$SKPOLY
 70
     0
  9
$TDCREATE
 40
2456991.8746875
  9
$TDUCREATE
 40
2456991.4996875
  9
$TDUPDATE
 40
2456991.499700591
  9
$TDUUPDATE
 40
2456991.124700591
  9
$TDINDWG
 40
0.0000000116
  9
$TDUSRTIMER
 40
0.0000000116
  9
$USRTIMER
 70
     1
  9
$ANGBASE
 50
0.0
  9
$ANGDIR
 70
     0
  9
$PDMODE
 70
     0
  9
$PDSIZE
 40
0.0
  9
$PLINEWID
 40
0.0
  9
$SPLFRAME
 70
     0
  9
$SPLINETYPE
 70
     6
  9
$SPLINESEGS
 70
     8
  9
$HANDSEED
  5
528
  9
$SURFTAB1
 70
     6
  9
$SURFTAB2
 70
     6
  9
$SURFTYPE
 70
     6
  9
$SURFU
 70
     6
  9
$SURFV
 70
     6
  9
$UCSBASE
  2

  9
$UCSNAME
  2

  9
$UCSORG
 10
0.0
 20
0.0
 30
0.0
  9
$UCSXDIR
 10
1.0
 20
0.0
 30
0.0
  9
$UCSYDIR
 10
0.0
 20
1.0
 30
0.0
  9
$UCSORTHOREF
  2

  9
$UCSORTHOVIEW
 70
     0
  9
$UCSORGTOP
 10
0.0
 20
0.0
 30
0.0
  9
$UCSORGBOTTOM
 10
0.0
 20
0.0
 30
0.0
  9
$UCSORGLEFT
 10
0.0
 20
0.0
 30
0.0
  9
$UCSORGRIGHT
 10
0.0
 20
0.0
 30
0.0
  9
$UCSORGFRONT
 10
0.0
 20
0.0
 30
0.0
  9
$UCSORGBACK
 10
0.0
 20
0.0
 30
0.0
  9
$PUCSBASE
  2

  9
$PUCSNAME
  2

  9
$PUCSORG
 10
0.0
 20
0.0
 30
0.0
  9
$PUCSXDIR
 10
1.0
 20
0.0
 30
0.0
  9
$PUCSYDIR
 10
0.0
 20
1.0
 30
0.0
  9
$PUCSORTHOREF
  2

  9
$PUCSORTHOVIEW
 70
     0
  9
$PUCSORGTOP
 10
0.0
 20
0.0
 30
0.0
  9
$PUCSORGBOTTOM
 10
0.0
 20
0.0
 30
0.0
  9
$PUCSORGLEFT
 10
0.0
 20
0.0
 30
0.0
  9
$PUCSORGRIGHT
 10
0.0
 20
0.0
 30
0.0
  9
$PUCSORGFRONT
 10
0.0
 20
0.0
 30
0.0
  9
$PUCSORGBACK
 10
0.0
 20
0.0
 30
0.0
  9
$USERI1
 70
     0
  9
$USERI2
 70
     0
  9
$USERI3
 70
     0
  9
$USERI4
 70
     0
  9
$USERI5
 70
     0
  9
$USERR1
 40
0.0
  9
$USERR2
 40
0.0
  9
$USERR3
 40
0.0
  9
$USERR4
 40
0.0
  9
$USERR5
 40
0.0
  9
$WORLDVIEW
 70
     1
  9
$SHADEDGE
 70
     3
  9
$SHADEDIF
 70
    70
  9
$TILEMODE
 70
     1
  9
$MAXACTVP
 70
    64
  9
$PINSBASE
 10
0.0
 20
0.0
 30
0.0
  9
$PLIMCHECK
 70
     0
  9
$PEXTMIN
 10
0.0
 20
0.0
 30
0.0
  9
$PEXTMAX
 10
1189.0
 20
841.0
 30
0.0
  9
$PLIMMIN
 10
0.0
 20
0.0
  9
$PLIMMAX
 10
1189.0
 20
841.0
  9
$UNITMODE
 70
     0
  9
$VISRETAIN
 70
     1
  9
$PLINEGEN
 70
     0
  9
$PSLTSCALE
 70
     1
  9
$TREEDEPTH
 70
  3020
  9
$CMLSTYLE
  2
Standard
  9
$CMLJUST
 70
     0
  9
$CMLSCALE
 40
1.0
  9
$PROXYGRAPHICS
 70
     1
  9
$MEASUREMENT
 70
     1
  9
$CELWEIGHT
370
    -1
  9
$ENDCAPS
280
     0
  9
$JOINSTYLE
280
     0
  9
$LWDISPLAY
290
     0
  9
$INSUNITS
 70
     4
  9
$HYPERLINKBASE
  1

  9
$STYLESHEET
  1

  9
$XEDIT
290
     1
  9
$CEPSNTYPE
380
     0
  9
$PSTYLEMODE
290
     1
  9
$FINGERPRINTGUID
  2
{EB77423A-0300-4131-BE23-89CFD4FE4D0A}
  9
$VERSIONGUID
  2
{FAEB1C32-E019-11D5-929B-00C0DF256EC4}
  9
$EXTNAMES
290
     1
  9
$PSVPSCALE
 40
0.0
  9
$OLESTARTUP
290
     0
  9
$SORTENTS
280
   127
  9
$INDEXCTL
280
     0
  9
$HIDETEXT
280
     1
  9
$XCLIPFRAME
290
     0
  9
$HALOGAP
280
     0
  9
$OBSCOLOR
 70
   257
  9
$OBSLTYPE
280
     0
  9
$INTERSECTIONDISPLAY
280
     0
  9
$INTERSECTIONCOLOR
 70
   257
  9
$DIMASSOC
280
     1
  9
$PROJECTNAME
  1

  9
$CAMERADISPLAY
290
     0
  9
$LENSLENGTH
 40
50.0
  9
$CAMERAHEIGHT
 40
0.0
  9
$STEPSPERSEC
 40
2.0
  9
$STEPSIZE
 40
6.0
  9
$3DDWFPREC
 40
2.0
  9
$PSOLWIDTH
 40
0.25
  9
$PSOLHEIGHT
 40
4.0
  9
$LOFTANG1
 40
1.570796326794897
  9
$LOFTANG2
 40
1.570796326794897
  9
$LOFTMAG1
 40
0.0
  9
$LOFTMAG2
 40
0.0
  9
$LOFTPARAM
 70
     7
  9
$LOFTNORMALS
280
     1
  9
$LATITUDE
 40
37.795
  9
$LONGITUDE
 40
-122.394
  9
$NORTHDIRECTION
 40
0.0
  9
$TIMEZONE
 70
 -8000
  9
$LIGHTGLYPHDISPLAY
280
     1
  9
$TILEMODELIGHTSYNCH
280
     1
  9
$SOLIDHIST
280
     1
  9
$SHOWHIST
280
     1
  9
$DWFFRAME
280
     2
  9
$DGNFRAME
280
     2
  9
$REALWORLDSCALE
290
     1
  9
$INTERFERECOLOR
 62
   256
  9
$CSHADOW
280
     0
  9
$SHADOWPLANELOCATION
 40
0.0
  0
ENDSEC
  0
SECTION
  2
CLASSES
  0
CLASS
  1
ACDBDICTIONARYWDFLT
  2
AcDbDictionaryWithDefault
  3
ObjectDBX Classes
 90
        0
 91
        4
280
     0
281
     0
  0
CLASS
  1
VISUALSTYLE
  2
AcDbVisualStyle
  3
ObjectDBX Classes
 90
     4095
 91
        4
280
     0
281
     0
  0
CLASS
  1
MATERIAL
  2
AcDbMaterial
  3
ObjectDBX Classes
 90
     1153
 91
        4
280
     0
281
     0
  0
ENDSEC
  0
SECTION
  2
TABLES
  0
TABLE
  2
VPORT
  5
8
330
0
100
AcDbSymbolTable
 70
     1
  0
VPORT
  5
29
330
8
100
AcDbSymbolTableRecord
100
AcDbViewportTableRecord
  2
*Active
 70
     0
 10
0.0
 20
0.0
 11
1.0
 21
1.0
 12
10.42990654205607
 22
4.5
 13
0.0
 23
0.0
 14
0.5
 24
0.5
 15
0.5
 25
0.5
 16
0.0
 26
0.0
 36
1.0
 17
0.0
 27
0.0
 37
0.0
 40
9.0
 41
1.972972972850329
 42
50.0
 43
0.0
 44
0.0
 50
0.0
 51
0.0
 71
     0
 72
   100
 73
     1
 74
     3
 75
     0
 76
     0
 77
     0
 78
     0
281
     0
 65
     1
110
0.0
120
0.0
130
0.0
111
1.0
121
0.0
131
0.0
112
0.0
122
1.0
132
0.0
 79
     0
146
0.0
 60
     3
 61
     5
292
     1
282
     1
141
0.0
142
0.0
 63
   250
  0
ENDTAB
  0
TABLE
  2
LTYPE
  5
5
330
0
100
AcDbSymbolTable
 70
     9
  0
LTYPE
  5
14
330
5
100
AcDbSymbolTableRecord
100
AcDbLinetypeTableRecord
  2
ByBlock
 70
     0
  3

 72
    65
 73
     0
 40
0.0
  0
LTYPE
  5
15
330
5
100
AcDbSymbolTableRecord
100
AcDbLinetypeTableRecord
  2
ByLayer
 70
     0
  3

 72
    65
 73
     0
 40
0.0
  0
LTYPE
  5
16
330
5
100
AcDbSymbolTableRecord
100
AcDbLinetypeTableRecord
  2
Continuous
 70
     0
  3
Solid line
 72
    65
 73
     0
 40
0.0
  0
LTYPE
  5
8E
330
5
100
AcDbSymbolTableRecord
100
AcDbLinetypeTableRecord
  2
DOT
 70
     0
  3
DOT
 72
    65
 73
     2
 40
4.0
 49
6.0
 74
     0
 49
-2.0
 74
     0
  0
LTYPE
  5
8F
330
5
100
AcDbSymbolTableRecord
100
AcDbLinetypeTableRecord
  2
HIDDEN
 70
     0
  3
HIDDEN
 72
    65
 73
     2
 40
4.2
 49
8.4
 74
     0
 49
-4.2
 74
     0
  0
LTYPE
  5
90
330
5
100
AcDbSymbolTableRecord
100
AcDbLinetypeTableRecord
  2
DASHDOT
 70
     0
  3
DASHDOT
 72
    65
 73
     4
 40
14.5
 49
30.0
 74
     0
 49
-9.0
 74
     0
 49
2.5
 74
     0
 49
-9.0
 74
     0
  0
LTYPE
  5
91
330
5
100
AcDbSymbolTableRecord
100
AcDbLinetypeTableRecord
  2
PHANTOM
 70
     0
  3
PHANTOM
 72
    65
 73
     6
 40
12.0
 49
30.0
 74
     0
 49
-9.0
 74
     0
 49
2.5
 74
     0
 49
-5.0
 74
     0
 49
2.5
 74
     0
 49
-9.0
 74
     0
  0
LTYPE
  5
92
330
5
100
AcDbSymbolTableRecord
100
AcDbLinetypeTableRecord
  2
ACAD_ISO14W100
 70
     0
  3
ACAD_ISO14W100
 72
    65
 73
     8
 40
1.5
 49
12.0
 74
     0
 49
-3.0
 74
     0
 49
0.5
 74
     0
 49
-3.0
 74
     0
 49
0.5
 74
     0
 49
-3.0
 74
     0
 49
0.5
 74
     0
 49
-3.0
 74
     0
  0
LTYPE
  5
93
330
5
100
AcDbSymbolTableRecord
100
AcDbLinetypeTableRecord
  2
ACAD_ISO06W100
 70
     0
  3
ACAD_ISO06W100
 72
    65
 73
     8
 40
13.5
 49
24.0
 74
     0
 49
-3.0
 74
     0
 49
0.5
 74
     0
 49
-3.0
 74
     0
 49
0.5
 74
     0
 49
-3.0
 74
     0
 49
0.5
 74
     0
 49
-3.0
 74
     0
  0
LTYPE
  5
94
330
5
100
AcDbSymbolTableRecord
100
AcDbLinetypeTableRecord
  2
ACAD_ISO11W100
 70
     0
  3
ACAD_ISO11W100
 72
    65
 73
     6
 40
15.5
 49
12.0
 74
     0
 49
-3.0
 74
     0
 49
12.0
 74
     0
 49
-3.0
 74
     0
 49
0.5
 74
     0
 49
-3.0
 74
     0
  0
LTYPE
  5
95
330
5
100
AcDbSymbolTableRecord
100
AcDbLinetypeTableRecord
  2
ACAD_ISO13W100
 70
     0
  3
ACAD_ISO13W100
 72
    65
 73
     8
 40
13.0
 49
12.0
 74
     0
 49
-3.0
 74
     0
 49
12.0
 74
     0
 49
-3.0
 74
     0
 49
0.5
 74
     0
 49
-3.0
 74
     0
 49
0.5
 74
     0
 49
-3.0
 74
     0
  0
ENDTAB
  0
TABLE
  2
LAYER
  5
2
330
0
100
AcDbSymbolTable
 70
    22
  0
LAYER
  5
10
330
2
100
AcDbSymbolTableRecord
100
AcDbLayerTableRecord
  2
0
 70
     0
 62
     7
  6
Continuous
370
    -3
390
F
347
3E
  0
LAYER
  5
96
330
2
100
AcDbSymbolTableRecord
100
AcDbLayerTableRecord
  2
1
 70
     0
 62
     7
  6
Continuous
370
     9
390
F
347
3E
  0
LAYER
  5
97
330
2
100
AcDbSymbolTableRecord
100
AcDbLayerTableRecord
  2
2
 70
     0
 62
   134
  6
Continuous
370
     9
390
F
347
3E
  0
LAYER
  5
98
330
2
100
AcDbSymbolTableRecord
100
AcDbLayerTableRecord
  2
3
 70
     0
 62
   214
  6
Continuous
370
     9
390
F
347
3E
  0
LAYER
  5
99
330
2
100
AcDbSymbolTableRecord
100
AcDbLayerTableRecord
  2
4
 70
     0
 62
    54
  6
Continuous
370
     9
390
F
347
3E
  0
LAYER
  5
9A
330
2
100
AcDbSymbolTableRecord
100
AcDbLayerTableRecord
  2
5
 70
     0
 62
    94
  6
Continuous
370
     9
390
F
347
3E
  0
LAYER
  5
9B
330
2
100
AcDbSymbolTableRecord
100
AcDbLayerTableRecord
  2
6
 70
     0
 62
    14
  6
Continuous
370
     9
390
F
347
3E
  0
LAYER
  5
9C
330
2
100
AcDbSymbolTableRecord
100
AcDbLayerTableRecord
  2
7
 70
     0
 62
     4
  6
Continuous
370
     9
390
F
347
3E
  0
LAYER
  5
9D
330
2
100
AcDbSymbolTableRecord
100
AcDbLayerTableRecord
  2
8
 70
     0
 62
     6
  6
Continuous
370
     9
390
F
347
3E
  0
LAYER
  5
9E
330
2
100
AcDbSymbolTableRecord
100
AcDbLayerTableRecord
  2
9
 70
     0
 62
     2
  6
Continuous
370
     9
390
F
347
3E
  0
LAYER
  5
9F
330
2
100
AcDbSymbolTableRecord
100
AcDbLayerTableRecord
  2
10
 70
     0
 62
     3
  6
Continuous
370
     9
390
F
347
3E
  0
LAYER
  5
A0
330
2
100
AcDbSymbolTableRecord
100
AcDbLayerTableRecord
  2
11
 70
     0
 62
   251
  6
Continuous
370
     9
390
F
347
3E
  0
LAYER
  5
A1
330
2
100
AcDbSymbolTableRecord
100
AcDbLayerTableRecord
  2
12
 70
     0
 62
   136
  6
Continuous
370
     9
390
F
347
3E
  0
LAYER
  5
A2
330
2
100
AcDbSymbolTableRecord
100
AcDbLayerTableRecord
  2
13
 70
     0
 62
   216
  6
Continuous
370
     9
390
F
347
3E
  0
LAYER
  5
A3
330
2
100
AcDbSymbolTableRecord
100
AcDbLayerTableRecord
  2
14
 70
     0
 62
    56
  6
Continuous
370
     9
390
F
347
3E
  0
LAYER
  5
A4
330
2
100
AcDbSymbolTableRecord
100
AcDbLayerTableRecord
  2
15
 70
     0
 62
    96
  6
Continuous
370
     9
390
F
347
3E
  0
LAYER
  5
A5
330
2
100
AcDbSymbolTableRecord
100
AcDbLayerTableRecord
  2
16
 70
     0
 62
    16
  6
Continuous
370
     9
390
F
347
3E
  0
LAYER
  5
A6
330
2
100
AcDbSymbolTableRecord
100
AcDbLayerTableRecord
  2
17
 70
     0
 62
   132
  6
Continuous
370
     9
390
F
347
3E
  0
LAYER
  5
A7
330
2
100
AcDbSymbolTableRecord
100
AcDbLayerTableRecord
  2
18
 70
     0
 62
   212
  6
Continuous
370
     9
390
F
347
3E
  0
LAYER
  5
A8
330
2
100
AcDbSymbolTableRecord
100
AcDbLayerTableRecord
  2
19
 70
     0
 62
    52
  6
Continuous
370
     9
390
F
347
3E
  0
LAYER
  5
A9
330
2
100
AcDbSymbolTableRecord
100
AcDbLayerTableRecord
  2
20
 70
     0
 62
   250
  6
Continuous
370
     9
390
F
347
3E
  0
LAYER
  5
AA
330
2
100
AcDbSymbolTableRecord
100
AcDbLayerTableRecord
  2
128
 70
     0
 62
     7
  6
Continuous
370
     9
390
F
347
3E
  0
ENDTAB
  0
TABLE
  2
STYLE
  5
3
330
0
100
AcDbSymbolTable
 70
     2
  0
STYLE
  5
11
330
3
100
AcDbSymbolTableRecord
100
AcDbTextStyleTableRecord
  2
Standard
 70
     0
 40
0.0
 41
1.0
 50
0.0
 71
     0
 42
5.0
  3
txt
  4
bigfont
  0
STYLE
  5
41
330
3
100
AcDbSymbolTableRecord
100
AcDbTextStyleTableRecord
  2
T_STANDARD
 70
     4
 40
10.0
 41
1.0
 50
0.0
 71
     0
 42
10.0
  3
txt
  4
bigfont
  0
ENDTAB
  0
TABLE
  2
VIEW
  5
6
330
0
100
AcDbSymbolTable
 70
     0
  0
ENDTAB
  0
TABLE
  2
UCS
  5
7
330
0
100
AcDbSymbolTable
 70
     0
  0
ENDTAB
  0
TABLE
  2
APPID
  5
9
330
0
100
AcDbSymbolTable
 70
     2
  0
APPID
  5
12
330
9
100
AcDbSymbolTableRecord
100
AcDbRegAppTableRecord
  2
ACAD
 70
     0
  0
APPID
  5
40
330
9
100
AcDbSymbolTableRecord
100
AcDbRegAppTableRecord
  2
ODA
 70
     0
  0
ENDTAB
  0
TABLE
  2
DIMSTYLE
  5
A
330
0
100
AcDbSymbolTable
 70
     1
100
AcDbDimStyleTable
  0
DIMSTYLE
105
27
330
A
100
AcDbSymbolTableRecord
100
AcDbDimStyleTableRecord
  2
Standard
 70
     0
178
     0
340
11
  0
ENDTAB
  0
TABLE
  2
BLOCK_RECORD
  5
1
330
0
100
AcDbSymbolTable
 70
    16
  0
BLOCK_RECORD
  5
1F
330
1
100
AcDbSymbolTableRecord
100
AcDbBlockTableRecord
  2
*Model_Space
340
22
 70
     0
280
     1
281
     0
  0
BLOCK_RECORD
  5
1B
330
1
100
AcDbSymbolTableRecord
100
AcDbBlockTableRecord
  2
*Paper_Space
340
1E
 70
     0
280
     1
281
     0
  0
BLOCK_RECORD
  5
23
330
1
100
AcDbSymbolTableRecord
100
AcDbBlockTableRecord
  2
*Paper_Space0
340
26
 70
     0
280
     1
281
     0
  0
BLOCK_RECORD
  5
42
330
1
100
AcDbSymbolTableRecord
100
AcDbBlockTableRecord
  2
_ORIGIN
340
0
 70
     0
280
     1
281
     0
  0
BLOCK_RECORD
  5
47
330
1
100
AcDbSymbolTableRecord
100
AcDbBlockTableRecord
  2
_DOTBLANK
340
0
 70
     0
280
     1
281
     0
  0
BLOCK_RECORD
  5
4C
330
1
100
AcDbSymbolTableRecord
100
AcDbBlockTableRecord
  2
_DOT
340
0
 70
     0
280
     1
281
     0
  0
BLOCK_RECORD
  5
51
330
1
100
AcDbSymbolTableRecord
100
AcDbBlockTableRecord
  2
_OPEN
340
0
 70
     0
280
     1
281
     0
  0
BLOCK_RECORD
  5
57
330
1
100
AcDbSymbolTableRecord
100
AcDbBlockTableRecord
  2
_CLOSED
340
0
 70
     0
280
     1
281
     0
  0
BLOCK_RECORD
  5
5E
330
1
100
AcDbSymbolTableRecord
100
AcDbBlockTableRecord
  2
_CLOSEDBLANK
340
0
 70
     0
280
     1
281
     0
  0
BLOCK_RECORD
  5
64
330
1
100
AcDbSymbolTableRecord
100
AcDbBlockTableRecord
  2
_ARROWFILLED
340
0
 70
     0
280
     1
281
     0
  0
BLOCK_RECORD
  5
68
330
1
100
AcDbSymbolTableRecord
100
AcDbBlockTableRecord
  2
_BOXBLANK
340
0
 70
     0
280
     1
281
     0
  0
BLOCK_RECORD
  5
70
330
1
100
AcDbSymbolTableRecord
100
AcDbBlockTableRecord
  2
_BOXFILLED
340
0
 70
     0
280
     1
281
     0
  0
BLOCK_RECORD
  5
75
330
1
100
AcDbSymbolTableRecord
100
AcDbBlockTableRecord
  2
_INTEGRAL
340
0
 70
     0
280
     1
281
     0
  0
BLOCK_RECORD
  5
7A
330
1
100
AcDbSymbolTableRecord
100
AcDbBlockTableRecord
  2
_OBLIQUE
340
0
 70
     0
280
     1
281
     0
  0
BLOCK_RECORD
  5
7E
330
1
100
AcDbSymbolTableRecord
100
AcDbBlockTableRecord
  2
_NONE
340
0
 70
     0
280
     1
281
     0
  0
BLOCK_RECORD
  5
81
330
1
100
AcDbSymbolTableRecord
100
AcDbBlockTableRecord
  2
MARK_OPEN
340
0
 70
     0
280
     1
281
     0
  0
BLOCK_RECORD
  5
86
330
1
100
AcDbSymbolTableRecord
100
AcDbBlockTableRecord
  2
MARK_ORIGIN
340
0
 70
     0
280
     1
281
     0
  0
BLOCK_RECORD
  5
8A
330
1
100
AcDbSymbolTableRecord
100
AcDbBlockTableRecord
  2
MARK_DOT
340
0
 70
     0
280
     1
281
     0
  0
ENDTAB
  0
ENDSEC
  0
SECTION
  2
BLOCKS
  0
BLOCK
  5
20
330
1F
100
AcDbEntity
  8
0
100
AcDbBlockBegin
  2
*Model_Space
 70
     0
 10
0.0
 20
0.0
 30
0.0
  3
*Model_Space
  1

  0
ENDBLK
  5
21
330
1F
100
AcDbEntity
  8
0
100
AcDbBlockEnd
  0
BLOCK
  5
1C
330
1B
100
AcDbEntity
 67
     1
  8
0
100
AcDbBlockBegin
  2
*Paper_Space
 70
     0
 10
0.0
 20
0.0
 30
0.0
  3
*Paper_Space
  1

  0
ENDBLK
  5
1D
330
1B
100
AcDbEntity
 67
     1
  8
0
100
AcDbBlockEnd
  0
BLOCK
  5
24
330
23
100
AcDbEntity
  8
0
100
AcDbBlockBegin
  2
*Paper_Space0
 70
     0
 10
0.0
 20
0.0
 30
0.0
  3
*Paper_Space0
  1

  0
ENDBLK
  5
25
330
23
100
AcDbEntity
  8
0
100
AcDbBlockEnd
  0
BLOCK
  5
45
330
42
100
AcDbEntity
  8
0
100
AcDbBlockBegin
  2
_ORIGIN
 70
     0
 10
0.0
 20
0.0
 30
0.0
  3
_ORIGIN
  1

  0
CIRCLE
  5
43
330
42
100
AcDbEntity
  8
0
100
AcDbCircle
 10
0.0
 20
0.0
 30
0.0
 40
0.5
  0
LINE
  5
44
330
42
100
AcDbEntity
  8
0
100
AcDbLine
 10
0.0
 20
0.0
 30
0.0
 11
-1.0
 21
0.0
 31
0.0
  0
ENDBLK
  5
46
330
42
100
AcDbEntity
  8
0
100
AcDbBlockEnd
  0
BLOCK
  5
4A
330
47
100
AcDbEntity
  8
0
100
AcDbBlockBegin
  2
_DOTBLANK
 70
     0
 10
0.0
 20
0.0
 30
0.0
  3
_DOTBLANK
  1

  0
CIRCLE
  5
48
330
47
100
AcDbEntity
  8
0
100
AcDbCircle
 10
0.0
 20
0.0
 30
0.0
 40
0.5
  0
LINE
  5
49
330
47
100
AcDbEntity
  8
0
100
AcDbLine
 10
-0.5
 20
0.0
 30
0.0
 11
-1.0
 21
0.0
 31
0.0
  0
ENDBLK
  5
4B
330
47
100
AcDbEntity
  8
0
100
AcDbBlockEnd
  0
BLOCK
  5
4F
330
4C
100
AcDbEntity
  8
0
100
AcDbBlockBegin
  2
_DOT
 70
     0
 10
0.0
 20
0.0
 30
0.0
  3
_DOT
  1

  0
LWPOLYLINE
  5
4D
330
4C
100
AcDbEntity
  8
0
100
AcDbPolyline
 90
        2
 70
     1
 43
0.5
 10
-0.25
 20
0.0
 42
1.0
 10
0.25
 20
0.0
 42
1.0
  0
LINE
  5
4E
330
4C
100
AcDbEntity
  8
0
100
AcDbLine
 10
-0.5
 20
0.0
 30
0.0
 11
-1.0
 21
0.0
 31
0.0
  0
ENDBLK
  5
50
330
4C
100
AcDbEntity
  8
0
100
AcDbBlockEnd
  0
BLOCK
  5
55
330
51
100
AcDbEntity
  8
0
100
AcDbBlockBegin
  2
_OPEN
 70
     0
 10
0.0
 20
0.0
 30
0.0
  3
_OPEN
  1

  0
LINE
  5
52
330
51
100
AcDbEntity
  8
0
100
AcDbLine
 10
0.0
 20
0.0
 30
0.0
 11
-1.0
 21
0.1666666666666667
 31
0.0
  0
LINE
  5
53
330
51
100
AcDbEntity
  8
0
100
AcDbLine
 10
0.0
 20
0.0
 30
0.0
 11
-1.0
 21
-0.1666666666666667
 31
0.0
  0
LINE
  5
54
330
51
100
AcDbEntity
  8
0
100
AcDbLine
 10
0.0
 20
0.0
 30
0.0
 11
-1.0
 21
0.0
 31
0.0
  0
ENDBLK
  5
56
330
51
100
AcDbEntity
  8
0
100
AcDbBlockEnd
  0
BLOCK
  5
5C
330
57
100
AcDbEntity
  8
0
100
AcDbBlockBegin
  2
_CLOSED
 70
     0
 10
0.0
 20
0.0
 30
0.0
  3
_CLOSED
  1

  0
LINE
  5
58
330
57
100
AcDbEntity
  8
0
100
AcDbLine
 10
0.0
 20
0.0
 30
0.0
 11
-1.0
 21
0.1666666666666667
 31
0.0
  0
LINE
  5
59
330
57
100
AcDbEntity
  8
0
100
AcDbLine
 10
0.0
 20
0.0
 30
0.0
 11
-1.0
 21
-0.1666666666666667
 31
0.0
  0
LINE
  5
5A
330
57
100
AcDbEntity
  8
0
100
AcDbLine
 10
-1.0
 20
0.1666666666666667
 30
0.0
 11
-1.0
 21
-0.1666666666666667
 31
0.0
  0
LINE
  5
5B
330
57
100
AcDbEntity
  8
0
100
AcDbLine
 10
0.0
 20
0.0
 30
0.0
 11
-1.0
 21
0.0
 31
0.0
  0
ENDBLK
  5
5D
330
57
100
AcDbEntity
  8
0
100
AcDbBlockEnd
  0
BLOCK
  5
62
330
5E
100
AcDbEntity
  8
0
100
AcDbBlockBegin
  2
_CLOSEDBLANK
 70
     0
 10
0.0
 20
0.0
 30
0.0
  3
_CLOSEDBLANK
  1

  0
LINE
  5
5F
330
5E
100
AcDbEntity
  8
0
100
AcDbLine
 10
0.0
 20
0.0
 30
0.0
 11
-1.0
 21
0.1666666666666667
 31
0.0
  0
LINE
  5
60
330
5E
100
AcDbEntity
  8
0
100
AcDbLine
 10
0.0
 20
0.0
 30
0.0
 11
-1.0
 21
-0.1666666666666667
 31
0.0
  0
LINE
  5
61
330
5E
100
AcDbEntity
  8
0
100
AcDbLine
 10
-1.0
 20
0.1666666666666667
 30
0.0
 11
-1.0
 21
-0.1666666666666667
 31
0.0
  0
ENDBLK
  5
63
330
5E
100
AcDbEntity
  8
0
100
AcDbBlockEnd
  0
BLOCK
  5
66
330
64
100
AcDbEntity
  8
0
100
AcDbBlockBegin
  2
_ARROWFILLED
 70
     0
 10
0.0
 20
0.0
 30
0.0
  3
_ARROWFILLED
  1

  0
SOLID
  5
65
330
64
100
AcDbEntity
  8
0
100
AcDbTrace
 10
0.0
 20
0.0
 30
0.0
 11
-1.0
 21
-0.1666666666666667
 31
0.0
 12
-1.0
 22
0.1666666666666667
 32
0.0
 13
0.0
 23
0.0
 33
0.0
  0
ENDBLK
  5
67
330
64
100
AcDbEntity
  8
0
100
AcDbBlockEnd
  0
BLOCK
  5
6E
330
68
100
AcDbEntity
  8
0
100
AcDbBlockBegin
  2
_BOXBLANK
 70
     0
 10
0.0
 20
0.0
 30
0.0
  3
_BOXBLANK
  1

  0
LINE
  5
69
330
68
100
AcDbEntity
  8
0
100
AcDbLine
 10
-0.5
 20
-0.5
 30
0.0
 11
0.5
 21
-0.5
 31
0.0
  0
LINE
  5
6A
330
68
100
AcDbEntity
  8
0
100
AcDbLine
 10
0.5
 20
-0.5
 30
0.0
 11
0.5
 21
0.5
 31
0.0
  0
LINE
  5
6B
330
68
100
AcDbEntity
  8
0
100
AcDbLine
 10
0.5
 20
0.5
 30
0.0
 11
-0.5
 21
0.5
 31
0.0
  0
LINE
  5
6C
330
68
100
AcDbEntity
  8
0
100
AcDbLine
 10
-0.5
 20
0.5
 30
0.0
 11
-0.5
 21
-0.5
 31
0.0
  0
LINE
  5
6D
330
68
100
AcDbEntity
  8
0
100
AcDbLine
 10
-0.5
 20
0.0
 30
0.0
 11
-1.0
 21
0.0
 31
0.0
  0
ENDBLK
  5
6F
330
68
100
AcDbEntity
  8
0
100
AcDbBlockEnd
  0
BLOCK
  5
73
330
70
100
AcDbEntity
  8
0
100
AcDbBlockBegin
  2
_BOXFILLED
 70
     0
 10
0.0
 20
0.0
 30
0.0
  3
_BOXFILLED
  1

  0
SOLID
  5
71
330
70
100
AcDbEntity
  8
0
100
AcDbTrace
 10
-0.5
 20
0.5
 30
0.0
 11
0.5
 21
0.5
 31
0.0
 12
-0.5
 22
-0.5
 32
0.0
 13
0.5
 23
-0.5
 33
0.0
  0
LINE
  5
72
330
70
100
AcDbEntity
  8
0
100
AcDbLine
 10
-0.5
 20
0.0
 30
0.0
 11
-1.0
 21
0.0
 31
0.0
  0
ENDBLK
  5
74
330
70
100
AcDbEntity
  8
0
100
AcDbBlockEnd
  0
BLOCK
  5
78
330
75
100
AcDbEntity
  8
0
100
AcDbBlockBegin
  2
_INTEGRAL
 70
     0
 10
0.0
 20
0.0
 30
0.0
  3
_INTEGRAL
  1

  0
ARC
  5
76
330
75
100
AcDbEntity
  8
0
100
AcDbCircle
 10
0.444888
 20
-0.0913346
 30
0.0
 40
0.4541666
100
AcDbArc
 50
101.9999999999999
 51
167.9999999999998
  0
ARC
  5
77
330
75
100
AcDbEntity
  8
0
100
AcDbCircle
 10
-0.444888
 20
0.0913346
 30
0.0
 40
0.4541666
100
AcDbArc
 50
281.9999999999997
 51
347.9999999999997
  0
ENDBLK
  5
79
330
75
100
AcDbEntity
  8
0
100
AcDbBlockEnd
  0
BLOCK
  5
7C
330
7A
100
AcDbEntity
  8
0
100
AcDbBlockBegin
  2
_OBLIQUE
 70
     0
 10
0.0
 20
0.0
 30
0.0
  3
_OBLIQUE
  1

  0
LINE
  5
7B
330
7A
100
AcDbEntity
  8
0
100
AcDbLine
 10
-0.5
 20
-0.5
 30
0.0
 11
0.5
 21
0.5
 31
0.0
  0
ENDBLK
  5
7D
330
7A
100
AcDbEntity
  8
0
100
AcDbBlockEnd
  0
BLOCK
  5
7F
330
7E
100
AcDbEntity
  8
0
100
AcDbBlockBegin
  2
_NONE
 70
     0
 10
0.0
 20
0.0
 30
0.0
  3
_NONE
  1

  0
ENDBLK
  5
80
330
7E
100
AcDbEntity
  8
0
100
AcDbBlockEnd
  0
BLOCK
  5
84
330
81
100
AcDbEntity
  8
0
100
AcDbBlockBegin
  2
MARK_OPEN
 70
     0
 10
0.0
 20
0.0
 30
0.0
  3
MARK_OPEN
  1

  0
LINE
  5
82
330
81
100
AcDbEntity
  8
0
100
AcDbLine
 10
0.0
 20
0.0
 30
0.0
 11
-1.0
 21
0.1666666666666667
 31
0.0
  0
LINE
  5
83
330
81
100
AcDbEntity
  8
0
100
AcDbLine
 10
0.0
 20
0.0
 30
0.0
 11
-1.0
 21
-0.1666666666666667
 31
0.0
  0
ENDBLK
  5
85
330
81
100
AcDbEntity
  8
0
100
AcDbBlockEnd
  0
BLOCK
  5
88
330
86
100
AcDbEntity
  8
0
100
AcDbBlockBegin
  2
MARK_ORIGIN
 70
     0
 10
0.0
 20
0.0
 30
0.0
  3
MARK_ORIGIN
  1

  0
CIRCLE
  5
87
330
86
100
AcDbEntity
  8
0
100
AcDbCircle
 10
0.0
 20
0.0
 30
0.0
 40
0.5
  0
ENDBLK
  5
89
330
86
100
AcDbEntity
  8
0
100
AcDbBlockEnd
  0
BLOCK
  5
8C
330
8A
100
AcDbEntity
  8
0
100
AcDbBlockBegin
  2
MARK_DOT
 70
     0
 10
0.0
 20
0.0
 30
0.0
  3
MARK_DOT
  1

  0
LWPOLYLINE
  5
8B
330
8A
100
AcDbEntity
  8
0
100
AcDbPolyline
 90
        2
 70
     1
 43
0.5
 10
-0.25
 20
0.0
 42
1.0
 10
0.25
 20
0.0
 42
1.0
  0
ENDBLK
  5
8D
330
8A
100
AcDbEntity
  8
0
100
AcDbBlockEnd
  0
ENDSEC
  0
SECTION
  2
ENTITIES
  0
LINE
  5
AB
330
1F
100
AcDbEntity
  8
1
  6
Continuous
 62
     7
370
     9
100
AcDbLine
 10
80.83542281337307
 20
49.77760497667185
 30
0.0
 11
96.83542281337307
 21
49.77760497667185
 31
0.0
  0
LINE
  5
AC
330
1F
100
AcDbEntity
  8
1
  6
Continuous
 62
     7
370
     9
100
AcDbLine
 10
97.33542281337307
 20
53.7776021156489
 30
0.0
 11
97.33542281337307
 21
50.27760497667185
 31
0.0
  0
LINE
  5
AD
330
1F
100
AcDbEntity
  8
1
  6
Continuous
 62
     7
370
     9
100
AcDbLine
 10
80.33542281337307
 20
53.77760497667185
 30
0.0
 11
80.33542281337307
 21
50.27760497667185
 31
0.0
  0
LINE
  5
AE
330
1F
100
AcDbEntity
  8
1
  6
Continuous
 62
     7
370
     9
100
AcDbLine
 10
81.33542281337307
 20
60.77760449983469
 30
0.0
 11
81.33542281337307
 21
54.35495559312693
 31
0.0
  0
LINE
  5
AF
330
1F
100
AcDbEntity
  8
1
  6
Continuous
 62
     7
370
     9
100
AcDbLine
 10
96.33542281337307
 20
61.84216348268382
 30
0.0
 11
96.33542281337307
 21
54.35495463945261
 31
0.0
  0
LINE
  5
B0
330
1F
100
AcDbEntity
  8
1
  6
Continuous
 62
     7
370
     9
100
AcDbLine
 10
96.3354207870252
 20
54.35495317461269
 30
0.0
 11
97.3354214161271
 21
53.77760260599771
 31
0.0
  0
LINE
  5
B1
330
1F
100
AcDbEntity
  8
1
  6
Continuous
 62
     7
370
     9
100
AcDbLine
 10
80.3354209107986
 20
53.77760481642198
 30
0.0
 11
81.33542153990051
 21
54.35495538503696
 31
0.0
  0
LINE
  5
B2
330
1F
100
AcDbEntity
  8
1
  6
Continuous
 62
     7
370
     9
100
AcDbLine
 10
82.23542433925198
 20
65.77428320981852
 30
0.0
 11
82.23542433925198
 21
62.15237800218455
 31
0.0
  0
LINE
  5
B3
330
1F
100
AcDbEntity
  8
1
  6
Continuous
 62
     7
370
     9
100
AcDbLine
 10
94.49227567017002
 20
82.74816524018365
 30
0.0
 11
105.8059828204556
 21
71.43445808989804
 31
0.0
  0
LINE
  5
B4
330
1F
100
AcDbEntity
  8
1
  6
Continuous
 62
     7
370
     9
100
AcDbLine
 10
103.3311087930041
 20
68.25247885040991
 30
0.0
 11
105.8059838916348
 21
70.72735290595894
 31
0.0
  0
LINE
  5
B5
330
1F
100
AcDbEntity
  8
1
  6
Continuous
 62
     7
370
     9
100
AcDbLine
 10
91.31030185037297
 20
80.27329595222622
 30
0.0
 11
91.60916131786087
 21
79.15793647400275
 31
0.0
  0
LINE
  5
B6
330
1F
100
AcDbEntity
  8
1
  6
Continuous
 62
     7
370
     9
100
AcDbLine
 10
96.92120863086868
 20
63.25637853369938
 30
0.0
 11
102.2159618857326
 21
68.55113223487763
 31
0.0
  0
LINE
  5
B7
330
1F
100
AcDbEntity
  8
1
  6
Continuous
 62
     7
370
     9
100
AcDbLine
 10
102.2157569749192
 20
68.55133751692199
 30
0.0
 11
103.3311124058578
 21
68.252477683622
 31
0.0
  0
LINE
  5
B8
330
1F
100
AcDbEntity
  8
1
  6
Continuous
 62
     7
370
     9
100
AcDbLine
 10
84.16851673241125
 20
70.44118902544196
 30
0.0
 11
86.73287384984462
 21
73.00554635903447
 31
0.0
  0
LINE
  5
B9
330
1F
100
AcDbEntity
  8
1
  6
Continuous
 62
     7
370
     9
100
AcDbLine
 10
87.06765113224411
 20
74.61643757638491
 30
0.0
 11
91.60915304463069
 21
79.15793757467202
 31
0.0
  0
LINE
  5
BA
330
1F
100
AcDbEntity
  8
1
  6
Continuous
 62
     7
370
     9
100
AcDbLine
 10
91.31029976215869
 20
80.27329197388181
 30
0.0
 11
93.7851739135441
 21
82.74816529080216
 31
0.0
  0
LINE
  5
BB
330
1F
100
AcDbEntity
  8
1
  6
Continuous
 62
     7
370
     9
100
AcDbLine
 10
91.31029782608687
 20
80.27329003781061
 30
0.0
 11
103.3311089032459
 21
68.25247896065157
 31
0.0
  0
LINE
  5
BC
330
1F
100
AcDbEntity
  8
1
  6
Continuous
 62
     7
370
     9
100
AcDbLine
 10
91.60915371923535
 20
79.15793824927637
 30
0.0
 11
102.2159608096834
 21
68.55113115882831
 31
0.0
  0
LINE
  5
BD
330
1F
100
AcDbEntity
  8
1
  6
Continuous
 62
     7
370
     9
100
AcDbLine
 10
80.33542281337307
 20
53.77760497667185
 30
0.0
 11
97.33542281337307
 21
53.77760497667185
 31
0.0
  0
LINE
  5
BE
330
1F
100
AcDbEntity
  8
1
  6
Continuous
 62
     7
370
     9
100
AcDbLine
 10
81.33542281337307
 20
54.35495463945261
 30
0.0
 11
96.33542281337307
 21
54.35495463945261
 31
0.0
  0
LINE
  5
BF
330
1F
100
AcDbEntity
  8
1
  6
Continuous
 62
     7
370
     9
100
AcDbLine
 10
95.56379983961567
 20
62.99025149818618
 30
0.0
 11
89.83542281337309
 21
65.36333572205845
 31
0.0
  0
LINE
  5
C0
330
1F
100
AcDbEntity
  8
1
  6
Continuous
 62
     7
370
     9
100
AcDbLine
 10
81.33542281337307
 20
60.77760449983469
 30
0.0
 11
87.83542281337307
 21
60.77760449983469
 31
0.0
  0
LINE
  5
C1
330
1F
100
AcDbEntity
  8
1
  6
Continuous
 62
     7
370
     9
100
AcDbLine
 10
87.06765178975769
 20
74.61643823389818
 30
0.0
 11
91.66384769512696
 21
70.02024232852891
 31
0.0
  0
LINE
  5
C2
330
1F
100
AcDbEntity
  8
1
  6
Continuous
 62
     7
370
     9
100
AcDbLine
 10
91.66384769512696
 20
68.60602876615582
 30
0.0
 11
88.83542281337309
 21
65.77760388440194
 31
0.0
  0
LINE
  5
C3
330
1F
100
AcDbEntity
  8
1
  6
Continuous
 62
     7
370
     9
100
AcDbLine
 10
88.83542281337307
 20
65.77760388440194
 30
0.0
 11
88.83542281337307
 21
61.77760449983469
 31
0.0
  0
ARC
  5
C4
330
1F
100
AcDbEntity
  8
1
  6
Continuous
 62
     7
370
     9
100
AcDbCircle
 10
96.83542281337307
 20
50.27760497667185
 30
0.0
 40
0.5
100
AcDbArc
 50
270.0000179860887
 51
0.0
  0
ARC
  5
C5
330
1F
100
AcDbEntity
  8
1
  6
Continuous
 62
     7
370
     9
100
AcDbCircle
 10
80.83542281337307
 20
50.27760497667185
 30
0.0
 40
0.5
100
AcDbArc
 50
179.9999813306647
 51
270.0000179860903
  0
ARC
  5
C6
330
1F
100
AcDbEntity
  8
1
  6
Continuous
 62
     7
370
     9
100
AcDbCircle
 10
88.8354247207217
 20
65.77428320981852
 30
0.0
 40
6.599999904632568
100
AcDbArc
 50
135.0000276623794
 51
179.9999640278214
  0
ARC
  5
C7
330
1F
100
AcDbEntity
  8
1
  6
Continuous
 62
     7
370
     9
100
AcDbCircle
 10
98.33542281337307
 20
61.84216348268382
 30
0.0
 40
2.0
100
AcDbArc
 50
135.0000140020009
 51
179.9999640278211
  0
ARC
  5
C8
330
1F
100
AcDbEntity
  8
1
  6
Continuous
 62
     7
370
     9
100
AcDbCircle
 10
85.67221480556057
 20
74.06620589830271
 30
0.0
 40
1.5
100
AcDbArc
 50
315.0000089930451
 51
21.519641376433
  0
ARC
  5
C9
330
1F
100
AcDbEntity
  8
1
  6
Continuous
 62
     7
370
     9
100
AcDbCircle
 10
94.13872367091702
 20
82.39461127855174
 30
0.0
 40
0.5
100
AcDbArc
 50
44.99990904468554
 51
134.9999457001098
  0
ARC
  5
CA
330
1F
100
AcDbEntity
  8
1
  6
Continuous
 62
     7
370
     9
100
AcDbCircle
 10
105.4524329299502
 20
71.08090201951853
 30
0.0
 40
0.5
100
AcDbArc
 50
314.9999406911538
 51
44.99992270506365
  0
ARC
  5
CB
330
1F
100
AcDbEntity
  8
1
  6
Continuous
 62
     7
370
     9
100
AcDbCircle
 10
80.73542433925198
 20
62.15237800218455
 30
0.0
 40
1.5
100
AcDbArc
 50
293.5781042085405
 51
0.0
  0
ARC
  5
CC
330
1F
100
AcDbEntity
  8
1
  6
Continuous
 62
     7
370
     9
100
AcDbCircle
 10
90.95674091394041
 20
69.31313554734237
 30
0.0
 40
1.0
100
AcDbArc
 50
315.0000000000014
 51
45.0
  0
ARC
  5
CD
330
1F
100
AcDbEntity
  8
1
  6
Continuous
 62
     7
370
     9
100
AcDbCircle
 10
87.83542281337307
 20
61.77760449983469
 30
0.0
 40
1.0
100
AcDbArc
 50
270.0000000000005
 51
0.0
  0
LINE
  5
CE
330
1F
100
AcDbEntity
  8
1
  6
Continuous
 62
     7
370
     9
100
AcDbLine
 10
59.33542281337307
 20
54.35495463945261
 30
0.0
 11
44.33542281337307
 21
54.35495463945261
 31
0.0
  0
LINE
  5
CF
330
1F
100
AcDbEntity
  8
1
  6
Continuous
 62
     7
370
     9
100
AcDbLine
 10
60.33542281337307
 20
53.77760497667185
 30
0.0
 11
43.33542281337307
 21
53.77760497667185
 31
0.0
  0
LINE
  5
D0
330
1F
100
AcDbEntity
  8
1
  6
Continuous
 62
     7
370
     9
100
AcDbLine
 10
60.33542471594754
 20
53.77760481642201
 30
0.0
 11
59.33542408684562
 21
54.35495538503699
 31
0.0
  0
LINE
  5
D1
330
1F
100
AcDbEntity
  8
1
  6
Continuous
 62
     7
370
     9
100
AcDbLine
 10
44.33542483972093
 20
54.35495317461267
 30
0.0
 11
43.33542421061902
 21
53.7776026059977
 31
0.0
  0
LINE
  5
D2
330
1F
100
AcDbEntity
  8
1
  6
Continuous
 62
     7
370
     9
100
AcDbLine
 10
44.33542281337307
 20
73.8545349047748
 30
0.0
 11
44.33542281337307
 21
54.35495463945261
 31
0.0
  0
LINE
  5
D3
330
1F
100
AcDbEntity
  8
1
  6
Continuous
 62
     7
370
     9
100
AcDbLine
 10
59.33542281337307
 20
73.85453482574795
 30
0.0
 11
59.33542281337307
 21
54.35495559312693
 31
0.0
  0
LINE
  5
D4
330
1F
100
AcDbEntity
  8
1
  6
Continuous
 62
     7
370
     9
100
AcDbLine
 10
60.33542281337307
 20
53.77760497667185
 30
0.0
 11
60.33542281337307
 21
50.27760497667185
 31
0.0
  0
LINE
  5
D5
330
1F
100
AcDbEntity
  8
1
  6
Continuous
 62
     7
370
     9
100
AcDbLine
 10
43.33542281337307
 20
53.7776021156489
 30
0.0
 11
43.33542281337307
 21
50.27760497667185
 31
0.0
  0
LINE
  5
D6
330
1F
100
AcDbEntity
  8
1
  6
Continuous
 62
     7
370
     9
100
AcDbLine
 10
59.83542281337307
 20
49.77760497667185
 30
0.0
 11
43.83542281337307
 21
49.77760497667185
 31
0.0
  0
LINE
  5
D7
330
1F
100
AcDbEntity
  8
1
  6
Continuous
 62
     7
370
     9
100
AcDbLine
 10
60.33542281337307
 20
77.09131099069127
 30
0.0
 11
60.33542281337307
 21
74.26288446746317
 31
0.0
  0
LINE
  5
D8
330
1F
100
AcDbEntity
  8
1
  6
Continuous
 62
     7
370
     9
100
AcDbLine
 10
43.33542281337307
 20
77.09131099069127
 30
0.0
 11
43.33542281337307
 21
74.26288446746318
 31
0.0
  0
LINE
  5
D9
330
1F
100
AcDbEntity
  8
1
  6
Continuous
 62
     7
370
     9
100
AcDbLine
 10
45.23542281337308
 20
60.77760449983469
 30
0.0
 11
58.43542281337307
 21
60.77760449983469
 31
0.0
  0
LINE
  5
DA
330
1F
100
AcDbEntity
  8
1
  6
Continuous
 62
     7
370
     9
100
AcDbLine
 10
45.23542281337308
 20
71.83201101914499
 30
0.0
 11
45.23542281337308
 21
60.77760449983469
 31
0.0
  0
LINE
  5
DB
330
1F
100
AcDbEntity
  8
1
  6
Continuous
 62
     7
370
     9
100
AcDbLine
 10
58.43542281337307
 20
71.83201101914499
 30
0.0
 11
58.43542281337307
 21
60.77760449983469
 31
0.0
  0
ARC
  5
DC
330
1F
100
AcDbEntity
  8
1
  6
Continuous
 62
     7
370
     9
100
AcDbCircle
 10
59.83542281337307
 20
50.27760497667185
 30
0.0
 40
0.5
100
AcDbArc
 50
269.9999820139106
 51
0.0000186693352852
  0
ARC
  5
DD
330
1F
100
AcDbEntity
  8
1
  6
Continuous
 62
     7
370
     9
100
AcDbCircle
 10
43.83542281337307
 20
50.27760497667185
 30
0.0
 40
0.5
100
AcDbArc
 50
179.9999999999998
 51
269.9999820139106
  0
ELLIPSE
  5
DE
330
1F
100
AcDbEntity
  8
1
  6
Continuous
 62
     7
370
     9
100
AcDbEllipse
 10
51.83542281337307
 20
77.09131099069127
 30
0.0
 11
8.5
 21
0.0
 31
0.0
210
0.0
220
0.0
230
1.0
 40
0.7071064815894559
 41
0.0
 42
3.141592653589799
  0
ELLIPSE
  5
DF
330
1F
100
AcDbEntity
  8
1
  6
Continuous
 62
     7
370
     9
100
AcDbEllipse
 10
51.83542281337307
 20
73.85453490477481
 30
0.0
 11
-7.5
 21
-4.249154173235985E-15
 31
0.0
210
0.0
220
0.0
230
1.0
 40
0.7071203559862923
 41
-3.141592653589787
 42
0.0000000000000062
  0
ELLIPSE
  5
E0
330
1F
100
AcDbEntity
  8
1
  6
Continuous
 62
     7
370
     9
100
AcDbEllipse
 10
51.83542281337307
 20
69.31303378568768
 30
0.0
 11
-7.5
 21
-7.579823247111454E-15
 31
0.0
210
0.0
220
0.0
230
1.0
 40
0.7071205054262961
 41
-2.646658553681252
 42
-0.4949340999085301
  0
ELLIPSE
  5
E1
330
1F
100
AcDbEntity
  8
1
  6
Continuous
 62
     7
370
     9
100
AcDbEllipse
 10
51.83542281337307
 20
74.26131099069127
 30
0.0
 11
8.5
 21
0.0
 31
0.0
210
0.0
220
0.0
230
1.0
 40
0.7071064815894559
 41
-3.141592653589787
 42
-2.651635352767597
  0
ELLIPSE
  5
E2
330
1F
100
AcDbEntity
  8
1
  6
Continuous
 62
     7
370
     9
100
AcDbEllipse
 10
51.83542281337307
 20
74.26131099069127
 30
0.0
 11
8.5
 21
0.0
 31
0.0
210
0.0
220
0.0
230
1.0
 40
0.7071064815894559
 41
0.0
 42
3.141592653589799
  0
ELLIPSE
  5
E3
330
1F
100
AcDbEntity
  8
1
  6
Continuous
 62
     7
370
     9
100
AcDbEllipse
 10
51.83542281337307
 20
74.26131099069127
 30
0.0
 11
8.5
 21
0.0
 31
0.0
210
0.0
220
0.0
230
1.0
 40
0.7071064815894559
 41
-0.4899573008221836
 42
0.0000000000000062
  0
LINE
  5
E4
330
1F
100
AcDbEntity
  8
1
  6
Continuous
 62
     7
370
     9
100
AcDbLine
 10
126.1595350131728
 20
77.09131099069127
 30
0.0
 11
126.1595350131728
 21
74.26288446746317
 31
0.0
  0
LINE
  5
E5
330
1F
100
AcDbEntity
  8
1
  6
Continuous
 62
     7
370
     9
100
AcDbLine
 10
143.1595350131728
 20
77.09131099069127
 30
0.0
 11
143.1595350131728
 21
74.26288446746318
 31
0.0
  0
LINE
  5
E6
330
1F
100
AcDbEntity
  8
1
  6
Continuous
 62
     7
370
     9
100
AcDbLine
 10
126.6595350131728
 20
49.77760497667185
 30
0.0
 11
142.6595350131728
 21
49.77760497667185
 31
0.0
  0
LINE
  5
E7
330
1F
100
AcDbEntity
  8
1
  6
Continuous
 62
     7
370
     9
100
AcDbLine
 10
143.1595350131728
 20
53.7776021156489
 30
0.0
 11
143.1595350131728
 21
50.27760497667185
 31
0.0
  0
LINE
  5
E8
330
1F
100
AcDbEntity
  8
1
  6
Continuous
 62
     7
370
     9
100
AcDbLine
 10
126.1595350131728
 20
53.77760497667185
 30
0.0
 11
126.1595350131728
 21
50.27760497667185
 31
0.0
  0
LINE
  5
E9
330
1F
100
AcDbEntity
  8
1
  6
Continuous
 62
     7
370
     9
100
AcDbLine
 10
127.1595350131728
 20
71.43445854110534
 30
0.0
 11
127.1595350131728
 21
54.35495559312693
 31
0.0
  0
LINE
  5
EA
330
1F
100
AcDbEntity
  8
1
  6
Continuous
 62
     7
370
     9
100
AcDbLine
 10
142.1595350131728
 20
71.43445854110534
 30
0.0
 11
142.1595350131728
 21
54.35495463945261
 31
0.0
  0
LINE
  5
EB
330
1F
100
AcDbEntity
  8
1
  6
Continuous
 62
     7
370
     9
100
AcDbLine
 10
142.1595329868249
 20
54.35495317461267
 30
0.0
 11
143.1595336159268
 21
53.7776026059977
 31
0.0
  0
LINE
  5
EC
330
1F
100
AcDbEntity
  8
1
  6
Continuous
 62
     7
370
     9
100
AcDbLine
 10
126.1595331105983
 20
53.77760481642201
 30
0.0
 11
127.1595337397002
 21
54.35495538503697
 31
0.0
  0
LINE
  5
ED
330
1F
100
AcDbEntity
  8
1
  6
Continuous
 62
     7
370
     9
100
AcDbLine
 10
126.1595350131728
 20
53.77760497667185
 30
0.0
 11
143.1595350131728
 21
53.77760497667185
 31
0.0
  0
LINE
  5
EE
330
1F
100
AcDbEntity
  8
1
  6
Continuous
 62
     7
370
     9
100
AcDbLine
 10
127.1595350131728
 20
54.35495463945261
 30
0.0
 11
142.1595350131728
 21
54.35495463945261
 31
0.0
  0
LINE
  5
EF
330
1F
100
AcDbEntity
  8
1
  6
Continuous
 62
     7
370
     9
100
AcDbLine
 10
133.6595350131728
 20
63.08486082916917
 30
0.0
 11
128.1595350131728
 21
65.36333572205842
 31
0.0
  0
LINE
  5
F0
330
1F
100
AcDbEntity
  8
1
  6
Continuous
 62
     7
370
     9
100
AcDbLine
 10
135.6595350131728
 20
63.08486082916917
 30
0.0
 11
141.1595350131728
 21
65.36333572205842
 31
0.0
  0
ARC
  5
F1
330
1F
100
AcDbEntity
  8
1
  6
Continuous
 62
     7
370
     9
100
AcDbCircle
 10
142.6595350131728
 20
50.27760497667185
 30
0.0
 40
0.5
100
AcDbArc
 50
270.0000179860887
 51
0.0
  0
ARC
  5
F2
330
1F
100
AcDbEntity
  8
1
  6
Continuous
 62
     7
370
     9
100
AcDbCircle
 10
126.6595350131728
 20
50.27760497667185
 30
0.0
 40
0.5
100
AcDbArc
 50
179.9999813306647
 51
270.0000179860887
  0
ELLIPSE
  5
F3
330
1F
100
AcDbEntity
  8
1
  6
Continuous
 62
     7
370
     9
100
AcDbEllipse
 10
134.6595350131728
 20
77.09131099069127
 30
0.0
 11
-8.5
 21
2.746425776535397E-14
 31
0.0
210
0.0
220
0.0
230
1.0
 40
0.7071064815894559
 41
0.0
 42
6.283185307179586
  0
ELLIPSE
  5
F4
330
1F
100
AcDbEntity
  8
1
  6
Continuous
 62
     7
370
     9
100
AcDbEllipse
 10
134.6595350131728
 20
74.26288446746317
 30
0.0
 11
-8.5
 21
2.746425776535397E-14
 31
0.0
210
0.0
220
0.0
230
1.0
 40
0.7071064815894559
 41
0.0
 42
3.141592653589799
  0
ELLIPSE
  5
F5
330
1F
100
AcDbEntity
  8
1
  6
Continuous
 62
     7
370
     9
100
AcDbEllipse
 10
134.6595350131728
 20
77.09131099069127
 30
0.0
 11
-4.863998524898663
 21
1.348699153308016E-6
 31
0.0
210
0.0
220
0.0
230
1.0
 40
0.7071069772544631
 41
0.0
 42
6.283185307179586
  0
ELLIPSE
  5
F6
330
1F
100
AcDbEntity
  8
1
  6
Continuous
 62
     7
370
     9
100
AcDbEllipse
 10
134.6595350131728
 20
77.09131099069127
 30
0.0
 11
-4.282997811855012
 21
-1.348699155033556E-6
 31
0.0
210
0.0
220
0.0
230
1.0
 40
0.7071065585213359
 41
0.0
 42
6.283185307179586
  0
LINE
  5
F7
330
1F
100
AcDbEntity
  8
1
  6
Continuous
 62
     7
370
     9
100
AcDbLine
 10
94.49227747007647
 20
103.7481641078893
 30
0.0
 11
88.83542281337307
 21
103.7481641078893
 31
0.0
  0
LINE
  5
F8
330
1F
100
AcDbEntity
  8
1
  6
Continuous
 62
     7
370
     9
100
AcDbLine
 10
94.49227747007647
 20
118.7481641078893
 30
0.0
 11
88.83542281337307
 21
118.7481641078893
 31
0.0
  0
LINE
  5
F9
330
1F
100
AcDbEntity
  8
1
  6
Continuous
 62
     7
370
     9
100
AcDbLine
 10
100.1491299196624
 20
119.7481641078893
 30
0.0
 11
97.32070339643428
 21
119.7481641078893
 31
0.0
  0
LINE
  5
FA
330
1F
100
AcDbEntity
  8
1
  6
Continuous
 62
     7
370
     9
100
AcDbLine
 10
100.1491299196624
 20
102.7481641078893
 30
0.0
 11
97.3207033964343
 21
102.7481641078893
 31
0.0
  0
ARC
  5
FB
330
1F
100
AcDbEntity
  8
1
  6
Continuous
 62
     7
370
     9
100
AcDbCircle
 10
88.83542281337307
 20
111.2481641078893
 30
0.0
 40
7.5
100
AcDbArc
 50
89.99999999999991
 51
270.0000000000003
  0
ARC
  5
FC
330
1F
100
AcDbEntity
  8
1
  6
Continuous
 62
     7
370
     9
100
AcDbCircle
 10
88.83542281337307
 20
111.2481641078893
 30
0.0
 40
8.5
100
AcDbArc
 50
61.92751306414705
 51
298.0724869358533
  0
ARC
  5
FD
330
1F
100
AcDbEntity
  8
1
  6
Continuous
 62
     7
370
     9
100
AcDbCircle
 10
88.83542281337307
 20
111.2481641078893
 30
0.0
 40
6.599998474121094
100
AcDbArc
 50
97.56084470356305
 51
262.4391559930605
  0
ARC
  5
FE
330
1F
100
AcDbEntity
  8
1
  6
Continuous
 62
     7
370
     9
100
AcDbCircle
 10
87.83542281337307
 20
118.7820858493625
 30
0.0
 40
1.0
100
AcDbArc
 50
277.5608447035631
 51
328.8713873901449
  0
ARC
  5
FF
330
1F
100
AcDbEntity
  8
1
  6
Continuous
 62
     7
370
     9
100
AcDbCircle
 10
89.5474408718377
 20
117.7481641078893
 30
0.0
 40
1.000000000000002
100
AcDbArc
 50
89.99999999999991
 51
148.8713873901434
  0
ARC
  5
100
330
1F
100
AcDbEntity
  8
1
  6
Continuous
 62
     7
370
     9
100
AcDbCircle
 10
87.83542281337307
 20
103.7142423664161
 30
0.0
 40
1.0
100
AcDbArc
 50
31.12861260985655
 51
82.4391552964373
  0
ARC
  5
101
330
1F
100
AcDbEntity
  8
1
  6
Continuous
 62
     7
370
     9
100
AcDbCircle
 10
89.5474408718377
 20
104.7481641078893
 30
0.0
 40
1.000000000000002
100
AcDbArc
 50
211.1286126098562
 51
269.9999999999998
  0
ELLIPSE
  5
102
330
1F
100
AcDbEntity
  8
1
  6
Continuous
 62
     7
370
     9
100
AcDbEllipse
 10
100.1491299196624
 20
111.2481641078893
 30
0.0
 11
1.373212888267699E-14
 21
8.5
 31
0.0
210
0.0
220
0.0
230
1.0
 40
0.7071064815894559
 41
0.0
 42
6.283185307179586
  0
ELLIPSE
  5
103
330
1F
100
AcDbEntity
  8
1
  6
Continuous
 62
     7
370
     9
100
AcDbEllipse
 10
100.1491299196624
 20
111.2481641078893
 30
0.0
 11
-1.348699150442716E-6
 21
4.282997811855012
 31
0.0
210
0.0
220
0.0
230
1.0
 40
0.7071065585213359
 41
0.0
 42
6.283185307179586
  0
ELLIPSE
  5
104
330
1F
100
AcDbEntity
  8
1
  6
Continuous
 62
     7
370
     9
100
AcDbEllipse
 10
97.3207033964343
 20
111.2481641078893
 30
0.0
 11
1.373212888267699E-14
 21
8.5
 31
0.0
210
0.0
220
0.0
230
1.0
 40
0.7071064815894559
 41
0.0
 42
3.141592653589798
  0
ELLIPSE
  5
105
330
1F
100
AcDbEntity
  8
1
  6
Continuous
 62
     7
370
     9
100
AcDbEllipse
 10
100.1491299196624
 20
111.2481641078893
 30
0.0
 11
1.348699150850133E-6
 21
4.863998524898663
 31
0.0
210
0.0
220
0.0
230
1.0
 40
0.7071069772544631
 41
0.0
 42
6.283185307179586
  0
ELLIPSE
  5
106
330
1F
100
AcDbEntity
  8
1
  6
Continuous
 62
     7
370
     9
100
AcDbEllipse
 10
92.3709544763135
 20
111.2481641078893
 30
0.0
 11
1.211658430824439E-14
 21
-7.499999999999996
 31
0.0
210
0.0
220
0.0
230
1.0
 40
0.7071070248741084
 41
-3.141592653589787
 42
0.0000000000000062
  0
LINE
  5
107
330
1F
100
AcDbEntity
  8
1
  6
Continuous
 62
     7
370
     9
100
AcDbLine
 10
291.0473923683167
 20
53.77760497667185
 30
0.0
 11
291.0473923683167
 21
50.77760497667185
 31
0.0
  0
LINE
  5
108
330
1F
100
AcDbEntity
  8
1
  6
Continuous
 62
     7
370
     9
100
AcDbLine
 10
312.0473923683167
 20
53.77760497667185
 30
0.0
 11
312.0473923683167
 21
50.77760497667185
 31
0.0
  0
LINE
  5
109
330
1F
100
AcDbEntity
  8
1
  6
Continuous
 62
     7
370
     9
100
AcDbLine
 10
292.0473923683167
 20
62.77760497667185
 30
0.0
 11
292.0473923683167
 21
54.35495463945261
 31
0.0
  0
LINE
  5
10A
330
1F
100
AcDbEntity
  8
1
  6
Continuous
 62
     7
370
     9
100
AcDbLine
 10
311.0473923683167
 20
62.01414910890452
 30
0.0
 11
311.0473923683167
 21
54.35495559312693
 31
0.0
  0
LINE
  5
10B
330
1F
100
AcDbEntity
  8
1
  6
Continuous
 62
     7
370
     9
100
AcDbLine
 10
292.0473923683167
 20
49.77760497667185
 30
0.0
 11
311.0473923683167
 21
49.77760497667185
 31
0.0
  0
LINE
  5
10C
330
1F
100
AcDbEntity
  8
1
  6
Continuous
 62
     7
370
     9
100
AcDbLine
 10
292.6973938941956
 20
66.77760187723032
 30
0.0
 11
292.6973938941956
 21
64.01352671720377
 31
0.0
  0
LINE
  5
10D
330
1F
100
AcDbEntity
  8
1
  6
Continuous
 62
     7
370
     9
100
AcDbLine
 10
291.0473904913847
 20
53.77760365490795
 30
0.0
 11
292.0473911204866
 21
54.35495422352292
 31
0.0
  0
LINE
  5
10E
330
1F
100
AcDbEntity
  8
1
  6
Continuous
 62
     7
370
     9
100
AcDbLine
 10
311.0473919852562
 20
54.35495490377038
 30
0.0
 11
312.047392201405
 21
53.77760457357397
 31
0.0
  0
LINE
  5
10F
330
1F
100
AcDbEntity
  8
1
  6
Continuous
 62
     7
370
     9
100
AcDbLine
 10
303.3151587607694
 20
83.39461592594569
 30
0.0
 11
303.6140195074336
 21
82.27925876511026
 31
0.0
  0
LINE
  5
110
330
1F
100
AcDbEntity
  8
1
  6
Continuous
 62
     7
370
     9
100
AcDbLine
 10
317.049050832843
 20
68.84423120249696
 30
0.0
 11
318.1644066263517
 21
68.54537272232474
 31
0.0
  0
LINE
  5
111
330
1F
100
AcDbEntity
  8
1
  6
Continuous
 62
     7
370
     9
100
AcDbLine
 10
303.6140208923465
 20
82.2792610501001
 30
0.0
 11
317.0490457496545
 21
68.84423506030413
 31
0.0
  0
LINE
  5
112
330
1F
100
AcDbEntity
  8
1
  6
Continuous
 62
     7
370
     9
100
AcDbLine
 10
295.2895005106499
 20
73.03549932167128
 30
0.0
 11
297.2439976256903
 21
74.98999495394617
 31
0.0
  0
LINE
  5
113
330
1F
100
AcDbEntity
  8
1
  6
Continuous
 62
     7
370
     9
100
AcDbLine
 10
303.3151629019157
 20
83.39461238179622
 30
0.0
 11
318.1644026094349
 21
68.54537267427703
 31
0.0
  0
LINE
  5
114
330
1F
100
AcDbEntity
  8
1
  6
Continuous
 62
     7
370
     9
100
AcDbLine
 10
306.8506943211844
 20
85.51593563348841
 30
0.0
 11
320.2857224893792
 21
72.08090746529359
 31
0.0
  0
LINE
  5
115
330
1F
100
AcDbEntity
  8
1
  6
Continuous
 62
     7
370
     9
100
AcDbLine
 10
311.6331796188044
 20
63.42836324601959
 30
0.0
 11
317.0490459435316
 21
68.84422957074679
 31
0.0
  0
LINE
  5
116
330
1F
100
AcDbEntity
  8
1
  6
Continuous
 62
     7
370
     9
100
AcDbLine
 10
297.6583071554893
 20
76.32354530512609
 30
0.0
 11
303.6140196576167
 21
82.2792598153699
 31
0.0
  0
LINE
  5
117
330
1F
100
AcDbEntity
  8
1
  6
Continuous
 62
     7
370
     9
100
AcDbLine
 10
318.1644015979106
 20
68.54537436015097
 30
0.0
 11
320.2857210985332
 21
70.66669386077365
 31
0.0
  0
LINE
  5
118
330
1F
100
AcDbEntity
  8
1
  6
Continuous
 62
     7
370
     9
100
AcDbLine
 10
303.3151618903913
 20
83.39461137027185
 30
0.0
 11
305.4364827397131
 21
85.51593221959367
 31
0.0
  0
LINE
  5
119
330
1F
100
AcDbEntity
  8
1
  6
Continuous
 62
     7
370
     9
100
AcDbLine
 10
291.0473923683167
 20
53.77760497667185
 30
0.0
 11
312.0473923683167
 21
53.77760497667185
 31
0.0
  0
LINE
  5
11A
330
1F
100
AcDbEntity
  8
1
  6
Continuous
 62
     7
370
     9
100
AcDbLine
 10
292.0473923683167
 20
54.35495559312693
 30
0.0
 11
311.0473923683167
 21
54.35495559312693
 31
0.0
  0
LINE
  5
11B
330
1F
100
AcDbEntity
  8
1
  6
Continuous
 62
     7
370
     9
100
AcDbLine
 10
310.7376934647118
 20
62.97085751520515
 30
0.0
 11
302.0473923683167
 21
66.57049903181283
 31
0.0
  0
LINE
  5
11C
330
1F
100
AcDbEntity
  8
1
  6
Continuous
 62
     7
370
     9
100
AcDbLine
 10
297.6583068469491
 20
76.32354499658575
 30
0.0
 11
303.6687122570479
 21
70.31313907984763
 31
0.0
  0
LINE
  5
11D
330
1F
100
AcDbEntity
  8
1
  6
Continuous
 62
     7
370
     9
100
AcDbLine
 10
303.6687121974433
 20
68.89892551747454
 30
0.0
 11
301.5473923683167
 21
66.77760586716178
 31
0.0
  0
LINE
  5
11E
330
1F
100
AcDbEntity
  8
1
  6
Continuous
 62
     7
370
     9
100
AcDbLine
 10
292.0473923683167
 20
62.77760495835662
 30
0.0
 11
300.5473923683167
 21
62.77760495835662
 31
0.0
  0
LINE
  5
11F
330
1F
100
AcDbEntity
  8
1
  6
Continuous
 62
     7
370
     9
100
AcDbLine
 10
301.5473923683167
 20
63.77760495835662
 30
0.0
 11
301.5473923683167
 21
66.77760586716178
 31
0.0
  0
ARC
  5
120
330
1F
100
AcDbEntity
  8
1
  6
Continuous
 62
     7
370
     9
100
AcDbCircle
 10
292.0473923683167
 20
50.77760497667185
 30
0.0
 40
1.0
100
AcDbArc
 50
179.9999813306655
 51
270.0000179860887
  0
ARC
  5
121
330
1F
100
AcDbEntity
  8
1
  6
Continuous
 62
     7
370
     9
100
AcDbCircle
 10
319.5786170959473
 20
71.37379781343333
 30
0.0
 40
1.0
100
AcDbArc
 50
314.9999406911538
 51
44.99992270506365
  0
ARC
  5
122
330
1F
100
AcDbEntity
  8
1
  6
Continuous
 62
     7
370
     9
100
AcDbCircle
 10
306.1435875892639
 20
84.80882732011668
 30
0.0
 40
1.0
100
AcDbArc
 50
44.99990904468439
 51
134.9999457001086
  0
ARC
  5
123
330
1F
100
AcDbEntity
  8
1
  6
Continuous
 62
     7
370
     9
100
AcDbCircle
 10
291.1973938941956
 20
64.01352671720377
 30
0.0
 40
1.5
100
AcDbArc
 50
304.5180455229066
 51
0.0
  0
ARC
  5
124
330
1F
100
AcDbEntity
  8
1
  6
Continuous
 62
     7
370
     9
100
AcDbCircle
 10
301.5473942756653
 20
66.77760187723032
 30
0.0
 40
8.850000381469727
100
AcDbArc
 50
135.0000003416226
 51
179.9999640278214
  0
ARC
  5
125
330
1F
100
AcDbEntity
  8
1
  6
Continuous
 62
     7
370
     9
100
AcDbCircle
 10
313.0473923683167
 20
62.01414910890452
 30
0.0
 40
2.0
100
AcDbArc
 50
135.0000140020012
 51
179.9999640278211
  0
ARC
  5
126
330
1F
100
AcDbEntity
  8
1
  6
Continuous
 62
     7
370
     9
100
AcDbCircle
 10
311.0473923683167
 20
50.77760497667185
 30
0.0
 40
1.0
100
AcDbArc
 50
270.0000179860887
 51
0.0
  0
ARC
  5
127
330
1F
100
AcDbEntity
  8
1
  6
Continuous
 62
     7
370
     9
100
AcDbCircle
 10
296.1833386421204
 20
76.05065528489939
 30
0.0
 40
1.5
100
AcDbArc
 50
314.9999816722893
 51
10.4819720078748
  0
ARC
  5
128
330
1F
100
AcDbEntity
  8
1
  6
Continuous
 62
     7
370
     9
100
AcDbCircle
 10
302.961605446059
 20
69.60603232846341
 30
0.0
 40
1.0
100
AcDbArc
 50
314.9999975851631
 51
44.99999758516289
  0
ARC
  5
129
330
1F
100
AcDbEntity
  8
1
  6
Continuous
 62
     7
370
     9
100
AcDbCircle
 10
300.5473923683167
 20
63.77760495835662
 30
0.0
 40
1.0
100
AcDbArc
 50
269.9999999999998
 51
0.0
  0
LINE
  5
12A
330
1F
100
AcDbEntity
  8
1
  6
Continuous
 62
     7
370
     9
100
AcDbLine
 10
270.0473923683167
 20
54.35495559312693
 30
0.0
 11
251.0473923683167
 21
54.35495559312693
 31
0.0
  0
LINE
  5
12B
330
1F
100
AcDbEntity
  8
1
  6
Continuous
 62
     7
370
     9
100
AcDbLine
 10
271.0473923683167
 20
53.77760497667185
 30
0.0
 11
250.0473923683167
 21
53.77760497667185
 31
0.0
  0
LINE
  5
12C
330
1F
100
AcDbEntity
  8
1
  6
Continuous
 62
     7
370
     9
100
AcDbLine
 10
251.0473927513772
 20
54.35495490377038
 30
0.0
 11
250.0473925352284
 21
53.77760457357397
 31
0.0
  0
LINE
  5
12D
330
1F
100
AcDbEntity
  8
1
  6
Continuous
 62
     7
370
     9
100
AcDbLine
 10
251.0473923683167
 20
75.56174663434344
 30
0.0
 11
251.0473923683167
 21
54.35495559312693
 31
0.0
  0
LINE
  5
12E
330
1F
100
AcDbEntity
  8
1
  6
Continuous
 62
     7
370
     9
100
AcDbLine
 10
270.0473923683167
 20
49.77760497667185
 30
0.0
 11
251.0473923683167
 21
49.77760497667185
 31
0.0
  0
LINE
  5
12F
330
1F
100
AcDbEntity
  8
1
  6
Continuous
 62
     7
370
     9
100
AcDbLine
 10
270.0473923683167
 20
75.56174663434345
 30
0.0
 11
270.0473923683167
 21
54.35495463945261
 31
0.0
  0
LINE
  5
130
330
1F
100
AcDbEntity
  8
1
  6
Continuous
 62
     7
370
     9
100
AcDbLine
 10
271.0473942452486
 20
53.77760365490795
 30
0.0
 11
270.0473936161467
 21
54.35495422352294
 31
0.0
  0
LINE
  5
131
330
1F
100
AcDbEntity
  8
1
  6
Continuous
 62
     7
370
     9
100
AcDbLine
 10
250.0473923683167
 20
53.77760497667185
 30
0.0
 11
250.0473923683167
 21
50.77760497667185
 31
0.0
  0
LINE
  5
132
330
1F
100
AcDbEntity
  8
1
  6
Continuous
 62
     7
370
     9
100
AcDbLine
 10
271.0473923683167
 20
53.77760497667185
 30
0.0
 11
271.0473923683167
 21
50.77760497667185
 31
0.0
  0
LINE
  5
133
330
1F
100
AcDbEntity
  8
1
  6
Continuous
 62
     7
370
     9
100
AcDbLine
 10
271.0473923683167
 20
78.79841891862742
 30
0.0
 11
271.0473923683167
 21
75.96999400384833
 31
0.0
  0
LINE
  5
134
330
1F
100
AcDbEntity
  8
1
  6
Continuous
 62
     7
370
     9
100
AcDbLine
 10
250.0473923683167
 20
78.79841891862742
 30
0.0
 11
250.0473923683167
 21
75.96999400384833
 31
0.0
  0
LINE
  5
135
330
1F
100
AcDbEntity
  8
1
  6
Continuous
 62
     7
370
     9
100
AcDbLine
 10
251.6973923683166
 20
62.77760495835662
 30
0.0
 11
269.3973923683167
 21
62.77760495835662
 31
0.0
  0
LINE
  5
136
330
1F
100
AcDbEntity
  8
1
  6
Continuous
 62
     7
370
     9
100
AcDbLine
 10
251.6973923683166
 20
72.01281449730786
 30
0.0
 11
251.6973923683166
 21
62.77760495835662
 31
0.0
  0
LINE
  5
137
330
1F
100
AcDbEntity
  8
1
  6
Continuous
 62
     7
370
     9
100
AcDbLine
 10
269.3973923683167
 20
72.01281449730786
 30
0.0
 11
269.3973923683167
 21
62.77760495835662
 31
0.0
  0
ARC
  5
138
330
1F
100
AcDbEntity
  8
1
  6
Continuous
 62
     7
370
     9
100
AcDbCircle
 10
251.0473923683167
 20
50.77760497667185
 30
0.0
 40
1.0
100
AcDbArc
 50
180.0000000000004
 51
269.9999820139106
  0
ARC
  5
139
330
1F
100
AcDbEntity
  8
1
  6
Continuous
 62
     7
370
     9
100
AcDbCircle
 10
270.0473923683167
 20
50.77760497667185
 30
0.0
 40
1.0
100
AcDbArc
 50
269.9999820139106
 51
0.000018669334471
  0
ELLIPSE
  5
13A
330
1F
100
AcDbEntity
  8
1
  6
Continuous
 62
     7
370
     9
100
AcDbEllipse
 10
260.5473923683167
 20
78.79841891862742
 30
0.0
 11
10.5
 21
0.0
 31
0.0
210
0.0
220
0.0
230
1.0
 40
0.7071068173363095
 41
0.0
 42
3.141592653589799
  0
ELLIPSE
  5
13B
330
1F
100
AcDbEntity
  8
1
  6
Continuous
 62
     7
370
     9
100
AcDbEllipse
 10
260.5473923683167
 20
75.96999400384833
 30
0.0
 11
10.5
 21
0.0
 31
0.0
210
0.0
220
0.0
230
1.0
 40
0.7071068173363095
 41
-3.141592653589788
 42
-2.701616710538066
  0
ELLIPSE
  5
13C
330
1F
100
AcDbEntity
  8
1
  6
Continuous
 62
     7
370
     9
100
AcDbEllipse
 10
260.5473923683167
 20
75.56174663434345
 30
0.0
 11
-9.5
 21
-1.381995693991677E-14
 31
0.0
210
0.0
220
0.0
230
1.0
 40
0.7071067806059628
 41
-3.141592653589789
 42
0.0000000000000036
  0
ELLIPSE
  5
13D
330
1F
100
AcDbEntity
  8
1
  6
Continuous
 62
     7
370
     9
100
AcDbEllipse
 10
260.5473923683167
 20
69.55057513174134
 30
0.0
 11
-9.5
 21
3.069534691421915E-14
 31
0.0
210
0.0
220
0.0
230
1.0
 40
0.7129442287773398
 41
-2.769528547371164
 42
-0.3720641062186187
  0
ELLIPSE
  5
13E
330
1F
100
AcDbEntity
  8
1
  6
Continuous
 62
     7
370
     9
100
AcDbEllipse
 10
260.5473923683167
 20
75.96999400384833
 30
0.0
 11
10.5
 21
0.0
 31
0.0
210
0.0
220
0.0
230
1.0
 40
0.7071068173363095
 41
0.0
 42
3.141592653589798
  0
ELLIPSE
  5
13F
330
1F
100
AcDbEntity
  8
1
  6
Continuous
 62
     7
370
     9
100
AcDbEllipse
 10
260.5473923683167
 20
75.96999400384833
 30
0.0
 11
10.5
 21
0.0
 31
0.0
210
0.0
220
0.0
230
1.0
 40
0.7071068173363095
 41
-0.4399759430517172
 42
0.0000000000000062
  0
LINE
  5
140
330
1F
100
AcDbEntity
  8
1
  6
Continuous
 62
     7
370
     9
100
AcDbLine
 10
360.5786167128867
 20
54.35495490377036
 30
0.0
 11
361.5786169290355
 21
53.77760457357397
 31
0.0
  0
LINE
  5
141
330
1F
100
AcDbEntity
  8
1
  6
Continuous
 62
     7
370
     9
100
AcDbLine
 10
360.5786170959473
 20
72.80771618201331
 30
0.0
 11
360.5786170959473
 21
54.35495559312693
 31
0.0
  0
LINE
  5
142
330
1F
100
AcDbEntity
  8
1
  6
Continuous
 62
     7
370
     9
100
AcDbLine
 10
341.5786170959473
 20
49.77760497667185
 30
0.0
 11
360.5786170959473
 21
49.77760497667185
 31
0.0
  0
LINE
  5
143
330
1F
100
AcDbEntity
  8
1
  6
Continuous
 62
     7
370
     9
100
AcDbLine
 10
341.5786170959473
 20
72.80771618201331
 30
0.0
 11
341.5786170959473
 21
54.35495463945261
 31
0.0
  0
LINE
  5
144
330
1F
100
AcDbEntity
  8
1
  6
Continuous
 62
     7
370
     9
100
AcDbLine
 10
340.5786152190153
 20
53.77760365490795
 30
0.0
 11
341.5786158481172
 21
54.35495422352292
 31
0.0
  0
LINE
  5
145
330
1F
100
AcDbEntity
  8
1
  6
Continuous
 62
     7
370
     9
100
AcDbLine
 10
361.5786170959473
 20
53.77760497667185
 30
0.0
 11
361.5786170959473
 21
50.77760497667185
 31
0.0
  0
LINE
  5
146
330
1F
100
AcDbEntity
  8
1
  6
Continuous
 62
     7
370
     9
100
AcDbLine
 10
340.5786170959473
 20
53.77760497667185
 30
0.0
 11
340.5786170959473
 21
50.77760497667185
 31
0.0
  0
LINE
  5
147
330
1F
100
AcDbEntity
  8
1
  6
Continuous
 62
     7
370
     9
100
AcDbLine
 10
340.5786170959473
 20
78.79841891862742
 30
0.0
 11
340.5786170959473
 21
75.96999400384833
 31
0.0
  0
LINE
  5
148
330
1F
100
AcDbEntity
  8
1
  6
Continuous
 62
     7
370
     9
100
AcDbLine
 10
361.5786170959473
 20
78.79841891862742
 30
0.0
 11
361.5786170959473
 21
75.96999400384833
 31
0.0
  0
LINE
  5
149
330
1F
100
AcDbEntity
  8
1
  6
Continuous
 62
     7
370
     9
100
AcDbLine
 10
340.5786170959473
 20
53.77760497667185
 30
0.0
 11
361.5786170959473
 21
53.77760497667185
 31
0.0
  0
LINE
  5
14A
330
1F
100
AcDbEntity
  8
1
  6
Continuous
 62
     7
370
     9
100
AcDbLine
 10
341.5786170959473
 20
54.35495559312693
 30
0.0
 11
360.5786170959473
 21
54.35495559312693
 31
0.0
  0
LINE
  5
14B
330
1F
100
AcDbEntity
  8
1
  6
Continuous
 62
     7
370
     9
100
AcDbLine
 10
350.0786170959473
 20
63.25678966622975
 30
0.0
 11
342.5786170959473
 21
66.3633921964639
 31
0.0
  0
LINE
  5
14C
330
1F
100
AcDbEntity
  8
1
  6
Continuous
 62
     7
370
     9
100
AcDbLine
 10
352.0786170959473
 20
63.25678966622975
 30
0.0
 11
359.5786170959473
 21
66.3633921964639
 31
0.0
  0
ARC
  5
14D
330
1F
100
AcDbEntity
  8
1
  6
Continuous
 62
     7
370
     9
100
AcDbCircle
 10
360.5786170959473
 20
50.77760497667185
 30
0.0
 40
1.0
100
AcDbArc
 50
270.0000179860854
 51
0.0
  0
ARC
  5
14E
330
1F
100
AcDbEntity
  8
1
  6
Continuous
 62
     7
370
     9
100
AcDbCircle
 10
341.5786170959473
 20
50.77760497667185
 30
0.0
 40
1.0
100
AcDbArc
 50
179.9999813306655
 51
270.0000179860887
  0
ELLIPSE
  5
14F
330
1F
100
AcDbEntity
  8
1
  6
Continuous
 62
     7
370
     9
100
AcDbEllipse
 10
351.0786170959473
 20
78.79841891862742
 30
0.0
 11
-10.5
 21
3.392643606308432E-14
 31
0.0
210
0.0
220
0.0
230
1.0
 40
0.7071068173363095
 41
0.0
 42
6.283185307179586
  0
ELLIPSE
  5
150
330
1F
100
AcDbEntity
  8
1
  6
Continuous
 62
     7
370
     9
100
AcDbEllipse
 10
351.0786170959473
 20
78.79841891862742
 30
0.0
 11
-6.578503578984026
 21
2.125573152982600E-14
 31
0.0
210
0.0
220
0.0
230
1.0
 40
0.7071070020952612
 41
0.0
 42
6.283185307179586
  0
ELLIPSE
  5
151
330
1F
100
AcDbEntity
  8
1
  6
Continuous
 62
     7
370
     9
100
AcDbEllipse
 10
351.0786170959473
 20
78.79841891862742
 30
0.0
 11
-5.722494988712356
 21
1.848989146246383E-14
 31
0.0
210
0.0
220
0.0
230
1.0
 40
0.707107035140181
 41
0.0
 42
6.283185307179586
  0
ELLIPSE
  5
152
330
1F
100
AcDbEntity
  8
1
  6
Continuous
 62
     7
370
     9
100
AcDbEllipse
 10
351.0786170959473
 20
75.96999400384833
 30
0.0
 11
-10.5
 21
3.392643606308432E-14
 31
0.0
210
0.0
220
0.0
230
1.0
 40
0.7071068173363095
 41
0.0
 42
3.1415926535898
  0
LINE
  5
153
330
1F
100
AcDbEntity
  8
1
  6
Continuous
 62
     7
370
     9
100
AcDbLine
 10
313.5682082176208
 20
126.8088273201167
 30
0.0
 11
310.7397833028418
 21
126.8088273201167
 31
0.0
  0
LINE
  5
154
330
1F
100
AcDbEntity
  8
1
  6
Continuous
 62
     7
370
     9
100
AcDbLine
 10
313.5682082176208
 20
105.8088273201167
 30
0.0
 11
310.7397833028418
 21
105.8088273201167
 31
0.0
  0
LINE
  5
155
330
1F
100
AcDbEntity
  8
1
  6
Continuous
 62
     7
370
     9
100
AcDbLine
 10
307.5775054810067
 20
106.8088273201167
 30
0.0
 11
301.5473923683167
 21
106.8088273201167
 31
0.0
  0
LINE
  5
156
330
1F
100
AcDbEntity
  8
1
  6
Continuous
 62
     7
370
     9
100
AcDbLine
 10
307.5775054810067
 20
125.8088273201167
 30
0.0
 11
301.5473923683167
 21
125.8088273201167
 31
0.0
  0
ARC
  5
157
330
1F
100
AcDbEntity
  8
1
  6
Continuous
 62
     7
370
     9
100
AcDbCircle
 10
301.5473923683167
 20
116.3088273201167
 30
0.0
 40
10.5
100
AcDbArc
 50
64.79123470324178
 51
295.2087652967588
  0
ARC
  5
158
330
1F
100
AcDbEntity
  8
1
  6
Continuous
 62
     7
370
     9
100
AcDbCircle
 10
301.5473923683167
 20
116.3088273201167
 30
0.0
 40
9.5
100
AcDbArc
 50
90.27610304887544
 51
270.0000000000003
  0
ARC
  5
159
330
1F
100
AcDbEntity
  8
1
  6
Continuous
 62
     7
370
     9
100
AcDbCircle
 10
301.5473923683167
 20
116.3088273201167
 30
0.0
 40
8.849998474121094
100
AcDbArc
 50
95.82687018069514
 51
264.1731301392654
  0
ARC
  5
15A
330
1F
100
AcDbEntity
  8
1
  6
Continuous
 62
     7
370
     9
100
AcDbCircle
 10
300.5473923683167
 20
126.1079328884933
 30
0.0
 40
1.0
100
AcDbArc
 50
275.8268701806974
 51
319.4921078003969
  0
ARC
  5
15B
330
1F
100
AcDbEntity
  8
1
  6
Continuous
 62
     7
370
     9
100
AcDbCircle
 10
302.0680253688178
 20
124.8088273201167
 30
0.0
 40
1.0
100
AcDbArc
 50
89.99999999999991
 51
139.4921078003927
  0
ARC
  5
15C
330
1F
100
AcDbEntity
  8
1
  6
Continuous
 62
     7
370
     9
100
AcDbCircle
 10
300.5473923683167
 20
106.5097217517402
 30
0.0
 40
1.0
100
AcDbArc
 50
40.50789219960608
 51
84.17312981930549
  0
ARC
  5
15D
330
1F
100
AcDbEntity
  8
1
  6
Continuous
 62
     7
370
     9
100
AcDbCircle
 10
302.0680253688178
 20
107.8088273201167
 30
0.0
 40
1.0
100
AcDbArc
 50
220.5078921996078
 51
270.0000000000029
  0
ELLIPSE
  5
15E
330
1F
100
AcDbEntity
  8
1
  6
Continuous
 62
     7
370
     9
100
AcDbEllipse
 10
313.5682082176208
 20
116.3088273201167
 30
0.0
 11
1.062786576491300E-14
 21
6.578503578984026
 31
0.0
210
0.0
220
0.0
230
1.0
 40
0.7071070020952612
 41
0.0
 42
6.283185307179586
  0
ELLIPSE
  5
15F
330
1F
100
AcDbEntity
  8
1
  6
Continuous
 62
     7
370
     9
100
AcDbEllipse
 10
313.5682082176208
 20
116.3088273201167
 30
0.0
 11
9.244945731231913E-15
 21
5.722494988712356
 31
0.0
210
0.0
220
0.0
230
1.0
 40
0.707107035140181
 41
0.0
 42
6.283185307179586
  0
ELLIPSE
  5
160
330
1F
100
AcDbEntity
  8
1
  6
Continuous
 62
     7
370
     9
100
AcDbEllipse
 10
313.5682082176208
 20
116.3088273201167
 30
0.0
 11
1.696321803154216E-14
 21
10.5
 31
0.0
210
0.0
220
0.0
230
1.0
 40
0.7071068173363095
 41
0.0
 42
6.283185307179586
  0
ELLIPSE
  5
161
330
1F
100
AcDbEntity
  8
1
  6
Continuous
 62
     7
370
     9
100
AcDbEllipse
 10
310.7397833028418
 20
116.3088273201167
 30
0.0
 11
1.696321803154216E-14
 21
10.5
 31
0.0
210
0.0
220
0.0
230
1.0
 40
0.7071068173363095
 41
0.0
 42
3.1415926535898
  0
ELLIPSE
  5
162
330
1F
100
AcDbEntity
  8
1
  6
Continuous
 62
     7
370
     9
100
AcDbEllipse
 10
304.3758190084321
 20
116.3088273201167
 30
0.0
 11
-1.527716517192804E-15
 21
-9.499999999999998
 31
0.0
210
0.0
220
0.0
230
1.0
 40
0.7071065433140039
 41
-3.141592653589788
 42
0.0000000000000062
  0
LINE
  5
163
330
1F
100
AcDbEntity
  8
1
  6
Continuous
 62
     7
370
     9
100
AcDbLine
 10
541.3373006136572
 20
90.34436146568677
 30
0.0
 11
557.6007559065982
 21
74.08090617274576
 31
0.0
  0
LINE
  5
164
330
1F
100
AcDbEntity
  8
1
  6
Continuous
 62
     7
370
     9
100
AcDbLine
 10
537.0946667673239
 20
87.51592824243214
 30
0.0
 11
539.923093970373
 21
90.34435663757446
 31
0.0
  0
LINE
  5
165
330
1F
100
AcDbEntity
  8
1
  6
Continuous
 62
     7
370
     9
100
AcDbLine
 10
554.7723317027676
 20
69.83826516144745
 30
0.0
 11
557.6007584120356
 21
72.66669067862296
 31
0.0
  0
LINE
  5
166
330
1F
100
AcDbEntity
  8
1
  6
Continuous
 62
     7
370
     9
100
AcDbLine
 10
531.7913541777269
 20
80.7984248827698
 30
0.0
 11
537.3935130456815
 21
86.40058422295117
 31
0.0
  0
LINE
  5
167
330
1F
100
AcDbEntity
  8
1
  6
Continuous
 62
     7
370
     9
100
AcDbLine
 10
548.2662325607947
 20
64.7444551059944
 30
0.0
 11
553.6579378418006
 21
70.13615993251346
 31
0.0
  0
LINE
  5
168
330
1F
100
AcDbEntity
  8
1
  6
Continuous
 62
     7
370
     9
100
AcDbLine
 10
537.0946670637418
 20
87.5159285388501
 30
0.0
 11
554.7723291637303
 21
69.83826494874603
 31
0.0
  0
LINE
  5
169
330
1F
100
AcDbEntity
  8
1
  6
Continuous
 62
     7
370
     9
100
AcDbLine
 10
528.5740254385936
 20
76.23950017760407
 30
0.0
 11
531.4757395265793
 21
79.14121426558972
 31
0.0
  0
LINE
  5
16A
330
1F
100
AcDbEntity
  8
1
  6
Continuous
 62
     7
370
     9
100
AcDbLine
 10
553.6569760341655
 20
70.13712355637801
 30
0.0
 11
554.7723299469113
 21
69.83826542653242
 31
0.0
  0
LINE
  5
16B
330
1F
100
AcDbEntity
  8
1
  6
Continuous
 62
     7
370
     9
100
AcDbLine
 10
537.0946556212318
 20
87.51593706632437
 30
0.0
 11
537.3935142447355
 21
86.4005813112212
 31
0.0
  0
LINE
  5
16C
330
1F
100
AcDbEntity
  8
1
  6
Continuous
 62
     7
370
     9
100
AcDbLine
 10
537.3935152229315
 20
86.40058640020118
 30
0.0
 11
553.6569713336221
 21
70.13712480588211
 31
0.0
  0
LINE
  5
16D
330
1F
100
AcDbEntity
  8
1
  6
Continuous
 62
     7
370
     9
100
AcDbLine
 10
524.534000084267
 20
49.77760497667185
 30
0.0
 11
547.534000084267
 21
49.77760497667185
 31
0.0
  0
LINE
  5
16E
330
1F
100
AcDbEntity
  8
1
  6
Continuous
 62
     7
370
     9
100
AcDbLine
 10
523.534000084267
 20
54.77760497667185
 30
0.0
 11
523.534000084267
 21
50.77760497667185
 31
0.0
  0
LINE
  5
16F
330
1F
100
AcDbEntity
  8
1
  6
Continuous
 62
     7
370
     9
100
AcDbLine
 10
548.534000084267
 20
54.77760116197459
 30
0.0
 11
548.534000084267
 21
50.77760497667185
 31
0.0
  0
LINE
  5
170
330
1F
100
AcDbEntity
  8
1
  6
Continuous
 62
     7
370
     9
100
AcDbLine
 10
524.534000084267
 20
63.27760497667185
 30
0.0
 11
524.534000084267
 21
55.35495463945261
 31
0.0
  0
LINE
  5
171
330
1F
100
AcDbEntity
  8
1
  6
Continuous
 62
     7
370
     9
100
AcDbLine
 10
547.534000084267
 20
62.97668782808177
 30
0.0
 11
547.534000084267
 21
55.35495463945261
 31
0.0
  0
LINE
  5
172
330
1F
100
AcDbEntity
  8
1
  6
Continuous
 62
     7
370
     9
100
AcDbLine
 10
525.4840008472064
 20
68.77952687302894
 30
0.0
 11
525.4840008472064
 21
64.67313377000681
 31
0.0
  0
LINE
  5
173
330
1F
100
AcDbEntity
  8
1
  6
Continuous
 62
     7
370
     9
100
AcDbLine
 10
523.534000084267
 20
54.77760497667185
 30
0.0
 11
548.534000084267
 21
54.77760497667185
 31
0.0
  0
LINE
  5
174
330
1F
100
AcDbEntity
  8
1
  6
Continuous
 62
     7
370
     9
100
AcDbLine
 10
547.5339987506061
 20
55.35495148564287
 30
0.0
 11
548.5339977278956
 21
54.77760187070211
 31
0.0
  0
LINE
  5
175
330
1F
100
AcDbEntity
  8
1
  6
Continuous
 62
     7
370
     9
100
AcDbLine
 10
523.5340000233925
 20
54.7776055479258
 30
0.0
 11
524.5339973488697
 21
55.3549542091923
 31
0.0
  0
LINE
  5
176
330
1F
100
AcDbEntity
  8
1
  6
Continuous
 62
     7
370
     9
100
AcDbLine
 10
524.534000084267
 20
55.35495463945261
 30
0.0
 11
547.534000084267
 21
55.35495463945261
 31
0.0
  0
LINE
  5
177
330
1F
100
AcDbEntity
  8
1
  6
Continuous
 62
     7
370
     9
100
AcDbLine
 10
546.8004655020416
 20
64.3161855345198
 30
0.0
 11
537.034000084267
 21
68.36322390136968
 31
0.0
  0
LINE
  5
178
330
1F
100
AcDbEntity
  8
1
  6
Continuous
 62
     7
370
     9
100
AcDbLine
 10
531.7913539673564
 20
80.79842467239925
 30
0.0
 11
539.2159800963218
 21
73.37379854343385
 31
0.0
  0
LINE
  5
179
330
1F
100
AcDbEntity
  8
1
  6
Continuous
 62
     7
370
     9
100
AcDbLine
 10
539.2159800963218
 20
71.95958498106076
 30
0.0
 11
536.034000084267
 21
68.77760496900592
 31
0.0
  0
LINE
  5
17A
330
1F
100
AcDbEntity
  8
1
  6
Continuous
 62
     7
370
     9
100
AcDbLine
 10
536.034000084267
 20
68.77760496900592
 30
0.0
 11
536.034000084267
 21
64.2776048956252
 31
0.0
  0
LINE
  5
17B
330
1F
100
AcDbEntity
  8
1
  6
Continuous
 62
     7
370
     9
100
AcDbLine
 10
535.034000084267
 20
63.2776048956252
 30
0.0
 11
524.534000084267
 21
63.2776048956252
 31
0.0
  0
ARC
  5
17C
330
1F
100
AcDbEntity
  8
1
  6
Continuous
 62
     7
370
     9
100
AcDbCircle
 10
556.8936497424701
 20
73.37379876710764
 30
0.0
 40
1.0
100
AcDbArc
 50
314.9999406911538
 51
44.99992270506596
  0
ARC
  5
17D
330
1F
100
AcDbEntity
  8
1
  6
Continuous
 62
     7
370
     9
100
AcDbCircle
 10
540.6301953052142
 20
89.63725463487498
 30
0.0
 40
1.0
100
AcDbArc
 50
44.99990904468439
 51
134.9999457001109
  0
ARC
  5
17E
330
1F
100
AcDbEntity
  8
1
  6
Continuous
 62
     7
370
     9
100
AcDbCircle
 10
530.4150807117084
 20
80.20187465288035
 30
0.0
 40
1.5
100
AcDbArc
 50
315.0000363138021
 51
23.43445929703561
  0
ARC
  5
17F
330
1F
100
AcDbEntity
  8
1
  6
Continuous
 62
     7
370
     9
100
AcDbCircle
 10
547.534000084267
 20
50.77760497667185
 30
0.0
 40
1.0
100
AcDbArc
 50
270.000017986092
 51
0.0
  0
ARC
  5
180
330
1F
100
AcDbEntity
  8
1
  6
Continuous
 62
     7
370
     9
100
AcDbCircle
 10
524.534000084267
 20
50.77760497667185
 30
0.0
 40
1.0
100
AcDbArc
 50
179.9999813306647
 51
270.000017986092
  0
ARC
  5
181
330
1F
100
AcDbEntity
  8
1
  6
Continuous
 62
     7
370
     9
100
AcDbCircle
 10
550.034000084267
 20
62.97668782808177
 30
0.0
 40
2.5
100
AcDbArc
 50
135.0000140020019
 51
179.9999640278213
  0
ARC
  5
182
330
1F
100
AcDbEntity
  8
1
  6
Continuous
 62
     7
370
     9
100
AcDbCircle
 10
536.034000084267
 20
68.77952687302894
 30
0.0
 40
10.55000019073486
100
AcDbArc
 50
135.0000276623792
 51
179.9999640278213
  0
ARC
  5
183
330
1F
100
AcDbEntity
  8
1
  6
Continuous
 62
     7
370
     9
100
AcDbCircle
 10
523.9840008472064
 20
64.67313377000681
 30
0.0
 40
1.5
100
AcDbArc
 50
291.5101414939163
 51
0.0
  0
ARC
  5
184
330
1F
100
AcDbEntity
  8
1
  6
Continuous
 62
     7
370
     9
100
AcDbCircle
 10
538.5088733151352
 20
72.6666917622473
 30
0.0
 40
1.0
100
AcDbArc
 50
315.0000000000002
 51
45.0
  0
ARC
  5
185
330
1F
100
AcDbEntity
  8
1
  6
Continuous
 62
     7
370
     9
100
AcDbCircle
 10
535.034000084267
 20
64.2776048956252
 30
0.0
 40
1.0
100
AcDbArc
 50
269.9999999999998
 51
0.0
  0
LINE
  5
186
330
1F
100
AcDbEntity
  8
1
  6
Continuous
 62
     7
370
     9
100
AcDbLine
 10
502.5340000842669
 20
55.35495463945261
 30
0.0
 11
479.5340000842669
 21
55.35495463945261
 31
0.0
  0
LINE
  5
187
330
1F
100
AcDbEntity
  8
1
  6
Continuous
 62
     7
370
     9
100
AcDbLine
 10
503.5340001451414
 20
54.77760554792579
 30
0.0
 11
502.5340028196644
 21
55.35495420919229
 31
0.0
  0
LINE
  5
188
330
1F
100
AcDbEntity
  8
1
  6
Continuous
 62
     7
370
     9
100
AcDbLine
 10
503.5340000842669
 20
54.77760497667185
 30
0.0
 11
478.5340000842669
 21
54.77760497667185
 31
0.0
  0
LINE
  5
189
330
1F
100
AcDbEntity
  8
1
  6
Continuous
 62
     7
370
     9
100
AcDbLine
 10
479.5340000842669
 20
78.26837207773232
 30
0.0
 11
479.5340000842669
 21
55.35495463945261
 31
0.0
  0
LINE
  5
18A
330
1F
100
AcDbEntity
  8
1
  6
Continuous
 62
     7
370
     9
100
AcDbLine
 10
502.5340000842669
 20
78.26837207773234
 30
0.0
 11
502.5340000842669
 21
55.35495463945261
 31
0.0
  0
LINE
  5
18B
330
1F
100
AcDbEntity
  8
1
  6
Continuous
 62
     7
370
     9
100
AcDbLine
 10
478.5340000842669
 20
54.77760116197459
 30
0.0
 11
478.5340000842669
 21
50.77760497667185
 31
0.0
  0
LINE
  5
18C
330
1F
100
AcDbEntity
  8
1
  6
Continuous
 62
     7
370
     9
100
AcDbLine
 10
503.5340000842669
 20
54.77760497667185
 30
0.0
 11
503.5340000842669
 21
50.77760497667185
 31
0.0
  0
LINE
  5
18D
330
1F
100
AcDbEntity
  8
1
  6
Continuous
 62
     7
370
     9
100
AcDbLine
 10
502.5340000842669
 20
49.77760497667185
 30
0.0
 11
479.5340000842669
 21
49.77760497667185
 31
0.0
  0
LINE
  5
18E
330
1F
100
AcDbEntity
  8
1
  6
Continuous
 62
     7
370
     9
100
AcDbLine
 10
479.5340014179278
 20
55.35495148564287
 30
0.0
 11
478.5340024406383
 21
54.77760187070214
 31
0.0
  0
LINE
  5
18F
330
1F
100
AcDbEntity
  8
1
  6
Continuous
 62
     7
370
     9
100
AcDbLine
 10
478.5340000842669
 20
82.21263400651804
 30
0.0
 11
478.5340000842669
 21
78.67709987113665
 31
0.0
  0
LINE
  5
190
330
1F
100
AcDbEntity
  8
1
  6
Continuous
 62
     7
370
     9
100
AcDbLine
 10
503.5340000842669
 20
82.21263400651804
 30
0.0
 11
503.5340000842669
 21
78.67709987113665
 31
0.0
  0
LINE
  5
191
330
1F
100
AcDbEntity
  8
1
  6
Continuous
 62
     7
370
     9
100
AcDbLine
 10
480.484000084267
 20
63.2776048956252
 30
0.0
 11
501.5840000842669
 21
63.2776048956252
 31
0.0
  0
LINE
  5
192
330
1F
100
AcDbEntity
  8
1
  6
Continuous
 62
     7
370
     9
100
AcDbLine
 10
480.484000084267
 20
75.90272263450974
 30
0.0
 11
480.484000084267
 21
63.2776048956252
 31
0.0
  0
LINE
  5
193
330
1F
100
AcDbEntity
  8
1
  6
Continuous
 62
     7
370
     9
100
AcDbLine
 10
501.5840000842669
 20
75.90272263450973
 30
0.0
 11
501.5840000842669
 21
63.2776048956252
 31
0.0
  0
ARC
  5
194
330
1F
100
AcDbEntity
  8
1
  6
Continuous
 62
     7
370
     9
100
AcDbCircle
 10
479.5340000842669
 20
50.77760497667185
 30
0.0
 40
1.0
100
AcDbArc
 50
179.9999999999998
 51
269.9999820139138
  0
ARC
  5
195
330
1F
100
AcDbEntity
  8
1
  6
Continuous
 62
     7
370
     9
100
AcDbCircle
 10
502.5340000842669
 20
50.77760497667185
 30
0.0
 40
1.0
100
AcDbArc
 50
269.9999820139138
 51
0.0000186693352852
  0
ELLIPSE
  5
196
330
1F
100
AcDbEntity
  8
1
  6
Continuous
 62
     7
370
     9
100
AcDbEllipse
 10
491.0340000842669
 20
82.21263400651804
 30
0.0
 11
12.5
 21
0.0
 31
0.0
210
0.0
220
0.0
230
1.0
 40
0.7071068572998049
 41
0.0
 42
3.141592653589799
  0
ELLIPSE
  5
197
330
1F
100
AcDbEntity
  8
1
  6
Continuous
 62
     7
370
     9
100
AcDbEllipse
 10
491.0340000842669
 20
78.67709987113665
 30
0.0
 11
12.5
 21
0.0
 31
0.0
210
0.0
220
0.0
230
1.0
 40
0.7071068572998049
 41
-3.141592653589787
 42
-2.738876814425804
  0
ELLIPSE
  5
198
330
1F
100
AcDbEntity
  8
1
  6
Continuous
 62
     7
370
     9
100
AcDbEllipse
 10
491.0340000842669
 20
78.26837207773232
 30
0.0
 11
-11.5
 21
-6.515369732295177E-15
 31
0.0
210
0.0
220
0.0
230
1.0
 40
0.7071488821929429
 41
-3.141592653589786
 42
0.0000000000000062
  0
ELLIPSE
  5
199
330
1F
100
AcDbEntity
  8
1
  6
Continuous
 62
     7
370
     9
100
AcDbEllipse
 10
491.0340000842669
 20
72.66621263687344
 30
0.0
 11
-11.5
 21
-6.515369732295177E-15
 31
0.0
210
0.0
220
0.0
230
1.0
 40
0.707148872654419
 41
-2.732271750835759
 42
-0.4093209027540228
  0
ELLIPSE
  5
19A
330
1F
100
AcDbEntity
  8
1
  6
Continuous
 62
     7
370
     9
100
AcDbEllipse
 10
491.0340000842669
 20
78.67709987113665
 30
0.0
 11
12.5
 21
0.0
 31
0.0
210
0.0
220
0.0
230
1.0
 40
0.7071068572998049
 41
0.0
 42
3.141592653589799
  0
ELLIPSE
  5
19B
330
1F
100
AcDbEntity
  8
1
  6
Continuous
 62
     7
370
     9
100
AcDbEllipse
 10
491.0340000842669
 20
78.67709987113665
 30
0.0
 11
12.5
 21
0.0
 31
0.0
210
0.0
220
0.0
230
1.0
 40
0.7071068572998049
 41
-0.4027158391639771
 42
0.0000000000000062
  0
LINE
  5
19C
330
1F
100
AcDbEntity
  8
1
  6
Continuous
 62
     7
370
     9
100
AcDbLine
 10
579.3078638766864
 20
55.35495463945261
 30
0.0
 11
602.3078638766864
 21
55.35495463945261
 31
0.0
  0
LINE
  5
19D
330
1F
100
AcDbEntity
  8
1
  6
Continuous
 62
     7
370
     9
100
AcDbLine
 10
578.307863815812
 20
54.77760554792579
 30
0.0
 11
579.307861141289
 21
55.35495420919229
 31
0.0
  0
LINE
  5
19E
330
1F
100
AcDbEntity
  8
1
  6
Continuous
 62
     7
370
     9
100
AcDbLine
 10
578.3078638766864
 20
54.77760497667185
 30
0.0
 11
603.3078638766864
 21
54.77760497667185
 31
0.0
  0
LINE
  5
19F
330
1F
100
AcDbEntity
  8
1
  6
Continuous
 62
     7
370
     9
100
AcDbLine
 10
602.3078638766864
 20
75.2129978831216
 30
0.0
 11
602.3078638766864
 21
55.35495463945261
 31
0.0
  0
LINE
  5
1A0
330
1F
100
AcDbEntity
  8
1
  6
Continuous
 62
     7
370
     9
100
AcDbLine
 10
579.3078638766864
 20
75.2129978831216
 30
0.0
 11
579.3078638766864
 21
55.35495463945261
 31
0.0
  0
LINE
  5
1A1
330
1F
100
AcDbEntity
  8
1
  6
Continuous
 62
     7
370
     9
100
AcDbLine
 10
603.3078638766864
 20
54.77760116197459
 30
0.0
 11
603.3078638766864
 21
50.77760497667185
 31
0.0
  0
LINE
  5
1A2
330
1F
100
AcDbEntity
  8
1
  6
Continuous
 62
     7
370
     9
100
AcDbLine
 10
578.3078638766864
 20
54.77760497667185
 30
0.0
 11
578.3078638766864
 21
50.77760497667185
 31
0.0
  0
LINE
  5
1A3
330
1F
100
AcDbEntity
  8
1
  6
Continuous
 62
     7
370
     9
100
AcDbLine
 10
579.3078638766864
 20
49.77760497667185
 30
0.0
 11
602.3078638766864
 21
49.77760497667185
 31
0.0
  0
LINE
  5
1A4
330
1F
100
AcDbEntity
  8
1
  6
Continuous
 62
     7
370
     9
100
AcDbLine
 10
602.3078625430254
 20
55.35495148564287
 30
0.0
 11
603.307861520315
 21
54.77760187070214
 31
0.0
  0
LINE
  5
1A5
330
1F
100
AcDbEntity
  8
1
  6
Continuous
 62
     7
370
     9
100
AcDbLine
 10
578.3078638766864
 20
82.21263400651804
 30
0.0
 11
578.3078638766864
 21
78.67709987113665
 31
0.0
  0
LINE
  5
1A6
330
1F
100
AcDbEntity
  8
1
  6
Continuous
 62
     7
370
     9
100
AcDbLine
 10
603.3078638766864
 20
82.21263400651804
 30
0.0
 11
603.3078638766864
 21
78.67709987113665
 31
0.0
  0
LINE
  5
1A7
330
1F
100
AcDbEntity
  8
1
  6
Continuous
 62
     7
370
     9
100
AcDbLine
 10
589.8078638766864
 20
64.4266037588254
 30
0.0
 11
580.3078638766864
 21
68.36322390136968
 31
0.0
  0
LINE
  5
1A8
330
1F
100
AcDbEntity
  8
1
  6
Continuous
 62
     7
370
     9
100
AcDbLine
 10
591.8078638766864
 20
64.42660375882542
 30
0.0
 11
601.3078638766864
 21
68.36322390136971
 31
0.0
  0
ARC
  5
1A9
330
1F
100
AcDbEntity
  8
1
  6
Continuous
 62
     7
370
     9
100
AcDbCircle
 10
602.3078638766864
 20
50.77760497667185
 30
0.0
 40
1.0
100
AcDbArc
 50
270.0000179860854
 51
0.0
  0
ARC
  5
1AA
330
1F
100
AcDbEntity
  8
1
  6
Continuous
 62
     7
370
     9
100
AcDbCircle
 10
579.3078638766864
 20
50.77760497667185
 30
0.0
 40
1.0
100
AcDbArc
 50
179.9999813306647
 51
270.0000179860854
  0
ELLIPSE
  5
1AB
330
1F
100
AcDbEntity
  8
1
  6
Continuous
 62
     7
370
     9
100
AcDbEllipse
 10
590.8078638766864
 20
82.21263400651804
 30
0.0
 11
-12.5
 21
4.038861436081467E-14
 31
0.0
210
0.0
220
0.0
230
1.0
 40
0.7071068572998047
 41
0.0
 42
6.283185307179586
  0
ELLIPSE
  5
1AC
330
1F
100
AcDbEntity
  8
1
  6
Continuous
 62
     7
370
     9
100
AcDbEllipse
 10
590.8078638766864
 20
82.21263400651804
 30
0.0
 11
-8.330997609055258
 21
2.023048730937829E-6
 31
0.0
210
0.0
220
0.0
230
1.0
 40
0.7071069528960087
 41
0.0
 42
6.283185307179586
  0
ELLIPSE
  5
1AD
330
1F
100
AcDbEntity
  8
1
  6
Continuous
 62
     7
370
     9
100
AcDbEllipse
 10
590.8078638766864
 20
82.21263400651804
 30
0.0
 11
-7.474999836245999
 21
2.023048726757895E-6
 31
0.0
210
0.0
220
0.0
230
1.0
 40
0.7071069725592724
 41
0.0
 42
6.283185307179586
  0
ELLIPSE
  5
1AE
330
1F
100
AcDbEntity
  8
1
  6
Continuous
 62
     7
370
     9
100
AcDbEllipse
 10
590.8078638766864
 20
78.67709987113665
 30
0.0
 11
-12.5
 21
4.038861436081467E-14
 31
0.0
210
0.0
220
0.0
230
1.0
 40
0.7071068572998047
 41
0.0
 42
3.141592653589799
  0
LINE
  5
1AF
330
1F
100
AcDbEntity
  8
1
  6
Continuous
 62
     7
370
     9
100
AcDbLine
 10
542.4693920370424
 20
112.0514697227656
 30
0.0
 11
536.034000084267
 21
112.0514697227656
 31
0.0
  0
LINE
  5
1B0
330
1F
100
AcDbEntity
  8
1
  6
Continuous
 62
     7
370
     9
100
AcDbLine
 10
542.4693920370424
 20
135.0514697227656
 30
0.0
 11
536.034000084267
 21
135.0514697227656
 31
0.0
  0
LINE
  5
1B1
330
1F
100
AcDbEntity
  8
1
  6
Continuous
 62
     7
370
     9
100
AcDbLine
 10
549.4690281604388
 20
111.0514697227656
 30
0.0
 11
545.9334940250575
 21
111.0514697227656
 31
0.0
  0
LINE
  5
1B2
330
1F
100
AcDbEntity
  8
1
  6
Continuous
 62
     7
370
     9
100
AcDbLine
 10
549.4690281604388
 20
136.0514697227657
 30
0.0
 11
545.9334940250575
 21
136.0514697227657
 31
0.0
  0
ARC
  5
1B3
330
1F
100
AcDbEntity
  8
1
  6
Continuous
 62
     7
370
     9
100
AcDbCircle
 10
536.034000084267
 20
123.5514697227656
 30
0.0
 40
12.5
100
AcDbArc
 50
66.92608193436921
 51
293.0739180656316
  0
ARC
  5
1B4
330
1F
100
AcDbEntity
  8
1
  6
Continuous
 62
     7
370
     9
100
AcDbCircle
 10
536.034000084267
 20
123.5514697227656
 30
0.0
 40
11.5
100
AcDbArc
 50
89.99999999999991
 51
270.0000000000002
  0
ARC
  5
1B5
330
1F
100
AcDbEntity
  8
1
  6
Continuous
 62
     7
370
     9
100
AcDbCircle
 10
536.034000084267
 20
123.5514697227656
 30
0.0
 40
10.54999923706055
100
AcDbArc
 50
94.96689250665693
 51
265.0331077492554
  0
ARC
  5
1B6
330
1F
100
AcDbEntity
  8
1
  6
Continuous
 62
     7
370
     9
100
AcDbCircle
 10
535.034000084267
 20
135.0580974814141
 30
0.0
 40
1.0
100
AcDbArc
 50
274.966892506658
 51
329.7805122512064
  0
ARC
  5
1B7
330
1F
100
AcDbEntity
  8
1
  6
Continuous
 62
     7
370
     9
100
AcDbCircle
 10
536.7622074084958
 20
134.0514697227656
 30
0.0
 40
1.0
100
AcDbArc
 50
89.99999999999991
 51
149.7805122512039
  0
ARC
  5
1B8
330
1F
100
AcDbEntity
  8
1
  6
Continuous
 62
     7
370
     9
100
AcDbCircle
 10
535.034000084267
 20
112.0448419641172
 30
0.0
 40
1.0
100
AcDbArc
 50
30.21948774879466
 51
85.03310749334175
  0
ARC
  5
1B9
330
1F
100
AcDbEntity
  8
1
  6
Continuous
 62
     7
370
     9
100
AcDbCircle
 10
536.7622074084958
 20
113.0514697227656
 30
0.0
 40
1.0
100
AcDbArc
 50
210.2194877487943
 51
270.0000000000061
  0
ELLIPSE
  5
1BA
330
1F
100
AcDbEntity
  8
1
  6
Continuous
 62
     7
370
     9
100
AcDbEllipse
 10
549.4690281604388
 20
123.5514697227656
 30
0.0
 11
2.023048722980617E-6
 21
7.474999836245999
 31
0.0
210
0.0
220
0.0
230
1.0
 40
0.7071069725592726
 41
0.0
 42
6.283185307179586
  0
ELLIPSE
  5
1BB
330
1F
100
AcDbEntity
  8
1
  6
Continuous
 62
     7
370
     9
100
AcDbEllipse
 10
549.4690281604388
 20
123.5514697227656
 30
0.0
 11
-4.785710873658686E-15
 21
12.5
 31
0.0
210
0.0
220
0.0
230
1.0
 40
0.7071068572998049
 41
0.0
 42
6.283185307179586
  0
ELLIPSE
  5
1BC
330
1F
100
AcDbEntity
  8
1
  6
Continuous
 62
     7
370
     9
100
AcDbEllipse
 10
549.4690281604388
 20
123.5514697227656
 30
0.0
 11
2.023048723028286E-6
 21
8.330997609055244
 31
0.0
210
0.0
220
0.0
230
1.0
 40
0.7071069528960088
 41
0.0
 42
6.283185307179586
  0
ELLIPSE
  5
1BD
330
1F
100
AcDbEntity
  8
1
  6
Continuous
 62
     7
370
     9
100
AcDbEllipse
 10
545.9334940250575
 20
123.5514697227656
 30
0.0
 11
-4.785710873658686E-15
 21
12.5
 31
0.0
210
0.0
220
0.0
230
1.0
 40
0.7071068572998049
 41
0.0
 42
3.141592653589799
  0
ELLIPSE
  5
1BE
330
1F
100
AcDbEntity
  8
1
  6
Continuous
 62
     7
370
     9
100
AcDbEllipse
 10
539.9230868775084
 20
123.5514697227656
 30
0.0
 11
-1.849341047128132E-15
 21
-11.5
 31
0.0
210
0.0
220
0.0
230
1.0
 40
0.7071072095784315
 41
-3.141592653589788
 42
0.0000000000000062
  0
LINE
  5
1BF
330
1F
100
AcDbEntity
  8
1
  6
Continuous
 62
     7
370
     9
100
AcDbLine
 10
774.5946531156175
 20
54.77760497667201
 30
0.0
 11
775.5946531156175
 21
55.35495524586159
 31
0.0
  0
LINE
  5
1C0
330
1F
100
AcDbEntity
  8
1
  6
Continuous
 62
     7
370
     9
100
AcDbLine
 10
802.326886162651
 20
66.12506171285563
 30
0.0
 11
808.6925014795635
 21
72.49067702976804
 31
0.0
  0
LINE
  5
1C1
330
1F
100
AcDbEntity
  8
1
  6
Continuous
 62
     7
370
     9
100
AcDbLine
 10
775.5946531156175
 20
49.77760497667185
 30
0.0
 11
801.5946531156175
 21
49.77760497667185
 31
0.0
  0
LINE
  5
1C2
330
1F
100
AcDbEntity
  8
1
  6
Continuous
 62
     7
370
     9
100
AcDbLine
 10
794.2515073651099
 20
94.81923553701489
 30
0.0
 11
812.63628367596
 21
76.43445922616462
 31
0.0
  0
LINE
  5
1C3
330
1F
100
AcDbEntity
  8
1
  6
Continuous
 62
     7
370
     9
100
AcDbLine
 10
790.3077251687133
 20
90.8754533406183
 30
0.0
 11
808.6925014795635
 21
72.49067702976802
 31
0.0
  0
LINE
  5
1C4
330
1F
100
AcDbEntity
  8
1
  6
Continuous
 62
     7
370
     9
100
AcDbLine
 10
808.6925014795635
 20
72.49067702976801
 30
0.0
 11
809.8078565512138
 21
72.1918185390453
 31
0.0
  0
LINE
  5
1C5
330
1F
100
AcDbEntity
  8
1
  6
Continuous
 62
     7
370
     9
100
AcDbLine
 10
801.5946531156175
 20
55.35495524586166
 30
0.0
 11
802.5946531156175
 21
54.777604976672
 31
0.0
  0
LINE
  5
1C6
330
1F
100
AcDbEntity
  8
1
  6
Continuous
 62
     7
370
     9
100
AcDbLine
 10
790.0088666779906
 20
91.99080841226862
 30
0.0
 11
792.8372938027368
 21
94.81923553701482
 31
0.0
  0
LINE
  5
1C7
330
1F
100
AcDbEntity
  8
1
  6
Continuous
 62
     7
370
     9
100
AcDbLine
 10
802.5946531156175
 20
54.77760497667197
 30
0.0
 11
802.5946531156175
 21
50.77760497667197
 31
0.0
  0
LINE
  5
1C8
330
1F
100
AcDbEntity
  8
1
  6
Continuous
 62
     7
370
     9
100
AcDbLine
 10
774.5946531156175
 20
54.77760497667205
 30
0.0
 11
774.5946531156175
 21
50.77760497667202
 31
0.0
  0
LINE
  5
1C9
330
1F
100
AcDbEntity
  8
1
  6
Continuous
 62
     7
370
     9
100
AcDbLine
 10
780.8164785225655
 20
81.38420669447058
 30
0.0
 11
790.3077251687131
 21
90.87545334061821
 31
0.0
  0
LINE
  5
1CA
330
1F
100
AcDbEntity
  8
1
  6
Continuous
 62
     7
370
     9
100
AcDbLine
 10
790.0088666779903
 20
91.99080841226852
 30
0.0
 11
790.3077251687131
 21
90.87545334061812
 31
0.0
  0
LINE
  5
1CB
330
1F
100
AcDbEntity
  8
1
  6
Continuous
 62
     7
370
     9
100
AcDbLine
 10
790.0088666779908
 20
91.9908084122687
 30
0.0
 11
809.8078565512141
 21
72.19181853904534
 31
0.0
  0
LINE
  5
1CC
330
1F
100
AcDbEntity
  8
1
  6
Continuous
 62
     7
370
     9
100
AcDbLine
 10
775.5946531156172
 20
68.77760497667202
 30
0.0
 11
775.5946531156172
 21
55.35495524586165
 31
0.0
  0
LINE
  5
1CD
330
1F
100
AcDbEntity
  8
1
  6
Continuous
 62
     7
370
     9
100
AcDbLine
 10
809.8078565512138
 20
72.19181853904536
 30
0.0
 11
812.63628367596
 21
75.02024566379154
 31
0.0
  0
LINE
  5
1CE
330
1F
100
AcDbEntity
  8
1
  6
Continuous
 62
     7
370
     9
100
AcDbLine
 10
801.5946531156172
 20
64.35729475988924
 30
0.0
 11
801.5946531156172
 21
55.35495524586162
 31
0.0
  0
LINE
  5
1CF
330
1F
100
AcDbEntity
  8
1
  6
Continuous
 62
     7
370
     9
100
AcDbLine
 10
775.5946531156172
 20
55.3549552458617
 30
0.0
 11
801.5946531156172
 21
55.3549552458617
 31
0.0
  0
LINE
  5
1D0
330
1F
100
AcDbEntity
  8
1
  6
Continuous
 62
     7
370
     9
100
AcDbLine
 10
774.5946531156175
 20
54.77760497667195
 30
0.0
 11
802.5946531156175
 21
54.77760497667195
 31
0.0
  0
LINE
  5
1D1
330
1F
100
AcDbEntity
  8
1
  6
Continuous
 62
     7
370
     9
100
AcDbLine
 10
800.8610747518279
 20
65.69668677316707
 30
0.0
 11
789.5946531156175
 21
70.36339141429912
 31
0.0
  0
LINE
  5
1D2
330
1F
100
AcDbEntity
  8
1
  6
Continuous
 62
     7
370
     9
100
AcDbLine
 10
780.8164785225655
 20
81.38420669447055
 30
0.0
 11
789.3017598968041
 21
72.89892532023194
 31
0.0
  0
LINE
  5
1D3
330
1F
100
AcDbEntity
  8
1
  6
Continuous
 62
     7
370
     9
100
AcDbLine
 10
789.3017598968041
 20
71.48471175785883
 30
0.0
 11
788.5946531156175
 21
70.77760497667221
 31
0.0
  0
LINE
  5
1D4
330
1F
100
AcDbEntity
  8
1
  6
Continuous
 62
     7
370
     9
100
AcDbLine
 10
788.5946531156175
 20
70.77760497667221
 30
0.0
 11
788.5946531156175
 21
69.77760497667204
 31
0.0
  0
LINE
  5
1D5
330
1F
100
AcDbEntity
  8
1
  6
Continuous
 62
     7
370
     9
100
AcDbLine
 10
787.5946531156175
 20
68.77760497667204
 30
0.0
 11
775.5946531156172
 21
68.77760497667204
 31
0.0
  0
ARC
  5
1D6
330
1F
100
AcDbEntity
  8
1
  6
Continuous
 62
     7
370
     9
100
AcDbCircle
 10
775.5946531156175
 20
50.77760497667205
 30
0.0
 40
1.0
100
AcDbArc
 50
179.9999999999992
 51
269.9999999999998
  0
ARC
  5
1D7
330
1F
100
AcDbEntity
  8
1
  6
Continuous
 62
     7
370
     9
100
AcDbCircle
 10
811.9291768947736
 20
75.72735244497801
 30
0.0
 40
1.0
100
AcDbArc
 50
314.9999999999962
 51
45.0000000000046
  0
ARC
  5
1D8
330
1F
100
AcDbEntity
  8
1
  6
Continuous
 62
     7
370
     9
100
AcDbCircle
 10
793.5444005839232
 20
94.11212875582822
 30
0.0
 40
1.0
100
AcDbArc
 50
44.9999999999954
 51
134.999999999996
  0
ARC
  5
1D9
330
1F
100
AcDbEntity
  8
1
  6
Continuous
 62
     7
370
     9
100
AcDbCircle
 10
801.5946531156175
 20
50.77760497667197
 30
0.0
 40
1.0
100
AcDbArc
 50
269.9999999999998
 51
0.0
  0
ARC
  5
1DA
330
1F
100
AcDbEntity
  8
1
  6
Continuous
 62
     7
370
     9
100
AcDbCircle
 10
788.5946531156175
 20
70.77760497667201
 30
0.0
 40
11.3
100
AcDbArc
 50
141.4757080742747
 51
173.5242919257263
  0
ARC
  5
1DB
330
1F
100
AcDbEntity
  8
1
  6
Continuous
 62
     7
370
     9
100
AcDbCircle
 10
804.0946531156172
 20
64.35729475988924
 30
0.0
 40
2.5
100
AcDbArc
 50
134.9999999999977
 51
180.000000000001
  0
ARC
  5
1DC
330
1F
100
AcDbEntity
  8
1
  6
Continuous
 62
     7
370
     9
100
AcDbCircle
 10
772.3995121109152
 20
72.62352150723679
 30
0.0
 40
5.0
100
AcDbArc
 50
309.7193930031752
 51
353.4975088514225
  0
ARC
  5
1DD
330
1F
100
AcDbEntity
  8
1
  6
Continuous
 62
     7
370
     9
100
AcDbCircle
 10
775.8376989926536
 20
80.9240389071028
 30
0.0
 40
5.0
100
AcDbArc
 50
321.5024911485781
 51
5.280606996826449
  0
ARC
  5
1DE
330
1F
100
AcDbEntity
  8
1
  6
Continuous
 62
     7
370
     9
100
AcDbCircle
 10
788.5946531156175
 20
72.19181853904539
 30
0.0
 40
1.0
100
AcDbArc
 50
315.0000000000054
 51
44.9999999999954
  0
ARC
  5
1DF
330
1F
100
AcDbEntity
  8
1
  6
Continuous
 62
     7
370
     9
100
AcDbCircle
 10
787.5946531156175
 20
69.77760497667204
 30
0.0
 40
1.0
100
AcDbArc
 50
269.9999999999998
 51
0.0
  0
LINE
  5
1E0
330
1F
100
AcDbEntity
  8
1
  6
Continuous
 62
     7
370
     9
100
AcDbLine
 10
796.196824169812
 20
142.6268473815898
 30
0.0
 11
790.0088666779906
 21
142.6268473815898
 31
0.0
  0
LINE
  5
1E1
330
1F
100
AcDbEntity
  8
1
  6
Continuous
 62
     7
370
     9
100
AcDbLine
 10
796.1968241698115
 20
116.6268473815898
 30
0.0
 11
790.0088666779906
 21
116.6268473815898
 31
0.0
  0
LINE
  5
1E2
330
1F
100
AcDbEntity
  8
1
  6
Continuous
 62
     7
370
     9
100
AcDbLine
 10
803.443895520535
 20
115.6268473815897
 30
0.0
 11
799.9083609823996
 21
115.6268473815897
 31
0.0
  0
LINE
  5
1E3
330
1F
100
AcDbEntity
  8
1
  6
Continuous
 62
     7
370
     9
100
AcDbLine
 10
803.443895520535
 20
143.6268473815896
 30
0.0
 11
799.9083611675675
 21
143.6268473815896
 31
0.0
  0
ARC
  5
1E4
330
1F
100
AcDbEntity
  8
1
  6
Continuous
 62
     7
370
     9
100
AcDbCircle
 10
788.5946531156175
 20
129.6268473815896
 30
0.0
 40
13.99999999999998
100
AcDbArc
 50
68.21321070173965
 51
291.786789298263
  0
ARC
  5
1E5
330
1F
100
AcDbEntity
  8
1
  6
Continuous
 62
     7
370
     9
100
AcDbCircle
 10
788.5946531156175
 20
129.6268473815896
 30
0.0
 40
13.00000000000013
100
AcDbArc
 50
86.34634137990327
 51
273.6536586200964
  0
ARC
  5
1E6
330
1F
100
AcDbEntity
  8
1
  6
Continuous
 62
     7
370
     9
100
AcDbCircle
 10
784.007049969378
 20
140.9609074538465
 30
0.0
 40
0.9999999999999999
100
AcDbArc
 50
292.0362590943145
 51
314.9078594262896
  0
ELLIPSE
  5
1E7
330
1F
100
AcDbEntity
  8
1
  6
Continuous
 62
     7
370
     9
100
AcDbEllipse
 10
803.443895520535
 20
129.6268473815896
 30
0.0
 11
-2.251371709547291E-15
 21
14.0
 31
0.0
210
0.0
220
0.0
230
1.0
 40
0.7142857142857143
 41
0.0
 42
6.283185307179586
  0
ELLIPSE
  5
1E8
330
1F
100
AcDbEntity
  8
1
  6
Continuous
 62
     7
370
     9
100
AcDbEllipse
 10
799.9083616146023
 20
129.6268473815896
 30
0.0
 11
-2.251371709547291E-15
 21
14.0
 31
0.0
210
0.0
220
0.0
230
1.0
 40
0.7142857142857143
 41
0.0
 42
3.141592653589798
  0
ELLIPSE
  5
1E9
330
1F
100
AcDbEntity
  8
1
  6
Continuous
 62
     7
370
     9
100
AcDbEllipse
 10
803.443895520535
 20
129.6268473815896
 30
0.0
 11
-2.494963398721887E-14
 21
10.47750000000001
 31
0.0
210
0.0
220
0.0
230
1.0
 40
0.7071067811865471
 41
0.0
 42
6.283185307179586
  0
ELLIPSE
  5
1EA
330
1F
100
AcDbEntity
  8
1
  6
Continuous
 62
     7
370
     9
100
AcDbEllipse
 10
803.443895520535
 20
129.6268473815896
 30
0.0
 11
-2.425106834327669E-14
 21
9.3155
 31
0.0
210
0.0
220
0.0
230
1.0
 40
0.707106781186547
 41
0.0
 42
6.283185307179586
  0
ELLIPSE
  5
1EB
330
1F
100
AcDbEntity
  8
1
  6
Continuous
 62
     7
370
     9
100
AcDbEllipse
 10
790.0088666779906
 20
129.6268473815896
 30
0.0
 11
-2.090559444579604E-15
 21
-12.99999999999985
 31
0.0
210
0.0
220
0.0
230
1.0
 40
0.7071067811865573
 41
-3.141592653589787
 42
0.0000000000000062
  0
LINE
  5
1EC
330
1F
100
AcDbEntity
  8
1
  6
Continuous
 62
     7
370
     9
100
AcDbLine
 10
833.443895520535
 20
54.77760497667195
 30
0.0
 11
861.443895520535
 21
54.77760497667195
 31
0.0
  0
LINE
  5
1ED
330
1F
100
AcDbEntity
  8
1
  6
Continuous
 62
     7
370
     9
100
AcDbLine
 10
834.4438955205347
 20
55.3549552458617
 30
0.0
 11
860.4438955205347
 21
55.3549552458617
 31
0.0
  0
LINE
  5
1EE
330
1F
100
AcDbEntity
  8
1
  6
Continuous
 62
     7
370
     9
100
AcDbLine
 10
860.4438955205347
 20
78.37977603086634
 30
0.0
 11
860.4438955205347
 21
55.35495524586162
 31
0.0
  0
LINE
  5
1EF
330
1F
100
AcDbEntity
  8
1
  6
Continuous
 62
     7
370
     9
100
AcDbLine
 10
834.4438955205347
 20
78.37977603086681
 30
0.0
 11
834.4438955205347
 21
55.35495524586165
 31
0.0
  0
LINE
  5
1F0
330
1F
100
AcDbEntity
  8
1
  6
Continuous
 62
     7
370
     9
100
AcDbLine
 10
833.443895520535
 20
54.77760497667205
 30
0.0
 11
833.443895520535
 21
50.77760497667202
 31
0.0
  0
LINE
  5
1F1
330
1F
100
AcDbEntity
  8
1
  6
Continuous
 62
     7
370
     9
100
AcDbLine
 10
861.443895520535
 20
54.77760497667197
 30
0.0
 11
861.443895520535
 21
50.77760497667197
 31
0.0
  0
LINE
  5
1F2
330
1F
100
AcDbEntity
  8
1
  6
Continuous
 62
     7
370
     9
100
AcDbLine
 10
860.443895520535
 20
55.35495524586163
 30
0.0
 11
861.443895520535
 21
54.77760497667198
 31
0.0
  0
LINE
  5
1F3
330
1F
100
AcDbEntity
  8
1
  6
Continuous
 62
     7
370
     9
100
AcDbLine
 10
834.443895520535
 20
49.77760497667185
 30
0.0
 11
860.443895520535
 21
49.77760497667185
 31
0.0
  0
LINE
  5
1F4
330
1F
100
AcDbEntity
  8
1
  6
Continuous
 62
     7
370
     9
100
AcDbLine
 10
833.443895520535
 20
54.77760497667198
 30
0.0
 11
834.443895520535
 21
55.35495524586156
 31
0.0
  0
LINE
  5
1F5
330
1F
100
AcDbEntity
  8
1
  6
Continuous
 62
     7
370
     9
100
AcDbLine
 10
833.443895520535
 20
85.62684738158967
 30
0.0
 11
833.443895520535
 21
82.09131302862221
 31
0.0
  0
LINE
  5
1F6
330
1F
100
AcDbEntity
  8
1
  6
Continuous
 62
     7
370
     9
100
AcDbLine
 10
861.443895520535
 20
85.62684738158963
 30
0.0
 11
861.443895520535
 21
82.09131284345429
 31
0.0
  0
LINE
  5
1F7
330
1F
100
AcDbEntity
  8
1
  6
Continuous
 62
     7
370
     9
100
AcDbLine
 10
846.443895520535
 20
65.80704222819507
 30
0.0
 11
835.4438955205347
 21
70.36339141429912
 31
0.0
  0
LINE
  5
1F8
330
1F
100
AcDbEntity
  8
1
  6
Continuous
 62
     7
370
     9
100
AcDbLine
 10
848.443895520535
 20
65.80704222819507
 30
0.0
 11
859.4438955205352
 21
70.36339141429912
 31
0.0
  0
ARC
  5
1F9
330
1F
100
AcDbEntity
  8
1
  6
Continuous
 62
     7
370
     9
100
AcDbCircle
 10
860.443895520535
 20
50.77760497667197
 30
0.0
 40
1.0
100
AcDbArc
 50
269.9999999999998
 51
0.0
  0
ARC
  5
1FA
330
1F
100
AcDbEntity
  8
1
  6
Continuous
 62
     7
370
     9
100
AcDbCircle
 10
834.443895520535
 20
50.77760497667205
 30
0.0
 40
1.0
100
AcDbArc
 50
179.9999999999992
 51
269.9999999999998
  0
ELLIPSE
  5
1FB
330
1F
100
AcDbEntity
  8
1
  6
Continuous
 62
     7
370
     9
100
AcDbEllipse
 10
847.443895520535
 20
85.62684738158967
 30
0.0
 11
-14.0
 21
4.523524808411243E-14
 31
0.0
210
0.0
220
0.0
230
1.0
 40
0.7142857142857143
 41
0.0
 42
6.283185307179586
  0
ELLIPSE
  5
1FC
330
1F
100
AcDbEntity
  8
1
  6
Continuous
 62
     7
370
     9
100
AcDbEllipse
 10
847.443895520535
 20
85.62684738158967
 30
0.0
 11
-10.47750000000001
 21
-1.989490246862277E-14
 31
0.0
210
0.0
220
0.0
230
1.0
 40
0.7071067811865469
 41
0.0
 42
6.283185307179586
  0
ELLIPSE
  5
1FD
330
1F
100
AcDbEntity
  8
1
  6
Continuous
 62
     7
370
     9
100
AcDbEllipse
 10
847.443895520535
 20
85.62684738158967
 30
0.0
 11
-9.3155
 21
-2.182538489753701E-14
 31
0.0
210
0.0
220
0.0
230
1.0
 40
0.7071067811865467
 41
0.0
 42
6.283185307179586
  0
ELLIPSE
  5
1FE
330
1F
100
AcDbEntity
  8
1
  6
Continuous
 62
     7
370
     9
100
AcDbEllipse
 10
847.443895520535
 20
82.09131347565703
 30
0.0
 11
-14.0
 21
4.523524808411243E-14
 31
0.0
210
0.0
220
0.0
230
1.0
 40
0.7142857142857143
 41
0.0
 42
3.141592653589799
  0
LINE
  5
1FF
330
1F
100
AcDbEntity
  8
1
  6
Continuous
 62
     7
370
     9
100
AcDbLine
 10
727.5946529587874
 20
55.35495524586165
 30
0.0
 11
726.5946529587874
 21
54.77760497667198
 31
0.0
  0
LINE
  5
200
330
1F
100
AcDbEntity
  8
1
  6
Continuous
 62
     7
370
     9
100
AcDbLine
 10
726.5946529587874
 20
54.77760497667197
 30
0.0
 11
726.5946529587874
 21
50.77760497667197
 31
0.0
  0
LINE
  5
201
330
1F
100
AcDbEntity
  8
1
  6
Continuous
 62
     7
370
     9
100
AcDbLine
 10
754.5946529587874
 20
54.77760497667205
 30
0.0
 11
754.5946529587874
 21
50.77760497667202
 31
0.0
  0
LINE
  5
202
330
1F
100
AcDbEntity
  8
1
  6
Continuous
 62
     7
370
     9
100
AcDbLine
 10
753.5946529587876
 20
81.68306559612489
 30
0.0
 11
753.5946529587876
 21
55.35495524586165
 31
0.0
  0
LINE
  5
203
330
1F
100
AcDbEntity
  8
1
  6
Continuous
 62
     7
370
     9
100
AcDbLine
 10
727.5946529587874
 20
81.68306518519313
 30
0.0
 11
727.5946529587874
 21
55.35495524586162
 31
0.0
  0
LINE
  5
204
330
1F
100
AcDbEntity
  8
1
  6
Continuous
 62
     7
370
     9
100
AcDbLine
 10
753.5946529587876
 20
55.3549552458617
 30
0.0
 11
727.5946529587874
 21
55.3549552458617
 31
0.0
  0
LINE
  5
205
330
1F
100
AcDbEntity
  8
1
  6
Continuous
 62
     7
370
     9
100
AcDbLine
 10
754.5946529587874
 20
54.77760497667195
 30
0.0
 11
726.5946529587874
 21
54.77760497667195
 31
0.0
  0
LINE
  5
206
330
1F
100
AcDbEntity
  8
1
  6
Continuous
 62
     7
370
     9
100
AcDbLine
 10
753.5946529587874
 20
49.77760497667185
 30
0.0
 11
727.5946529587874
 21
49.77760497667185
 31
0.0
  0
LINE
  5
207
330
1F
100
AcDbEntity
  8
1
  6
Continuous
 62
     7
370
     9
100
AcDbLine
 10
754.5946529587874
 20
54.77760497667197
 30
0.0
 11
753.5946529587874
 21
55.35495524586155
 31
0.0
  0
LINE
  5
208
330
1F
100
AcDbEntity
  8
1
  6
Continuous
 62
     7
370
     9
100
AcDbLine
 10
726.5946529587874
 20
85.62684738158963
 30
0.0
 11
726.5946529587874
 21
82.09131284345429
 31
0.0
  0
LINE
  5
209
330
1F
100
AcDbEntity
  8
1
  6
Continuous
 62
     7
370
     9
100
AcDbLine
 10
754.5946529587874
 20
85.62684738158967
 30
0.0
 11
754.5946529587874
 21
82.09131302862221
 31
0.0
  0
LINE
  5
20A
330
1F
100
AcDbEntity
  8
1
  6
Continuous
 62
     7
370
     9
100
AcDbLine
 10
729.2946529587877
 20
68.77760497667204
 30
0.0
 11
751.8946529587873
 21
68.77760497667204
 31
0.0
  0
LINE
  5
20B
330
1F
100
AcDbEntity
  8
1
  6
Continuous
 62
     7
370
     9
100
AcDbLine
 10
751.8946529587873
 20
76.73659576130865
 30
0.0
 11
751.8946529587873
 21
68.77760497667204
 31
0.0
  0
LINE
  5
20C
330
1F
100
AcDbEntity
  8
1
  6
Continuous
 62
     7
370
     9
100
AcDbLine
 10
729.2946529587877
 20
76.73659576130865
 30
0.0
 11
729.2946529587877
 21
68.77760497667204
 31
0.0
  0
ARC
  5
20D
330
1F
100
AcDbEntity
  8
1
  6
Continuous
 62
     7
370
     9
100
AcDbCircle
 10
727.5946529587874
 20
50.77760497667197
 30
0.0
 40
1.0
100
AcDbArc
 50
179.9999999999998
 51
269.9999999999998
  0
ARC
  5
20E
330
1F
100
AcDbEntity
  8
1
  6
Continuous
 62
     7
370
     9
100
AcDbCircle
 10
753.5946529587874
 20
50.77760497667205
 30
0.0
 40
1.0
100
AcDbArc
 50
269.9999999999998
 51
0.0000000000008142
  0
ELLIPSE
  5
20F
330
1F
100
AcDbEntity
  8
1
  6
Continuous
 62
     7
370
     9
100
AcDbEllipse
 10
740.5946529587874
 20
85.62684738158967
 30
0.0
 11
14.0
 21
0.0
 31
0.0
210
0.0
220
0.0
230
1.0
 40
0.7142857142857143
 41
0.0000000000000014
 42
3.141592653589799
  0
ELLIPSE
  5
210
330
1F
100
AcDbEntity
  8
1
  6
Continuous
 62
     7
370
     9
100
AcDbEllipse
 10
740.5946529587874
 20
82.09131347565703
 30
0.0
 11
14.0
 21
0.0
 31
0.0
210
0.0
220
0.0
230
1.0
 40
0.7142857142857143
 41
-3.141592653589787
 42
-2.761341446934134
  0
ELLIPSE
  5
211
330
1F
100
AcDbEntity
  8
1
  6
Continuous
 62
     7
370
     9
100
AcDbEllipse
 10
740.5946529587876
 20
81.68306518519313
 30
0.0
 11
-13.0
 21
-7.365200566942374E-15
 31
0.0
210
0.0
220
0.0
230
1.0
 40
0.7071067811865456
 41
-3.141592653589788
 42
0.0000000000000062
  0
ELLIPSE
  5
212
330
1F
100
AcDbEntity
  8
1
  6
Continuous
 62
     7
370
     9
100
AcDbEllipse
 10
740.5946529587876
 20
72.19181853904546
 30
0.0
 11
-13.0
 21
-7.365200566942374E-15
 31
0.0
210
0.0
220
0.0
230
1.0
 40
0.7071067811865472
 41
-2.624440675770714
 42
-0.5171519778190694
  0
ELLIPSE
  5
213
330
1F
100
AcDbEntity
  8
1
  6
Continuous
 62
     7
370
     9
100
AcDbEllipse
 10
740.5946529587874
 20
82.09131347565703
 30
0.0
 11
14.0
 21
0.0
 31
0.0
210
0.0
220
0.0
230
1.0
 40
0.7142857142857143
 41
0.0
 42
3.141592653589799
  0
ELLIPSE
  5
214
330
1F
100
AcDbEntity
  8
1
  6
Continuous
 62
     7
370
     9
100
AcDbEllipse
 10
740.5946529587874
 20
82.09131347565703
 30
0.0
 11
14.0
 21
0.0
 31
0.0
210
0.0
220
0.0
230
1.0
 40
0.7142857142857143
 41
-0.3802512066555934
 42
0.0000000000000062
  0
LINE
  5
215
330
1F
100
AcDbEntity
  8
1
  6
Continuous
 62
     7
370
     9
100
AcDbLine
 10
1033.78862251385
 20
49.77760497667185
 30
0.0
 11
1065.28862251385
 21
49.77760497667185
 31
0.0
  0
LINE
  5
216
330
1F
100
AcDbEntity
  8
1
  6
Continuous
 62
     7
370
     9
100
AcDbLine
 10
1051.483166162113
 20
100.4102257946843
 30
0.0
 11
1051.782024652836
 21
99.2948707230338
 31
0.0
  0
LINE
  5
217
330
1F
100
AcDbEntity
  8
1
  6
Continuous
 62
     7
370
     9
100
AcDbLine
 10
1051.483166162113
 20
100.4102257946842
 30
0.0
 11
1054.665146677452
 21
103.5922063100237
 31
0.0
  0
LINE
  5
218
330
1F
100
AcDbEntity
  8
1
  6
Continuous
 62
     7
370
     9
100
AcDbLine
 10
1044.412098350248
 20
91.92494442044568
 30
0.0
 11
1051.782024652836
 21
99.29487072303385
 31
0.0
  0
LINE
  5
219
330
1F
100
AcDbEntity
  8
1
  6
Continuous
 62
     7
370
     9
100
AcDbLine
 10
1066.685961957624
 20
69.65108081306943
 30
0.0
 11
1074.055888260212
 21
77.0210071156576
 31
0.0
  0
LINE
  5
21A
330
1F
100
AcDbEntity
  8
1
  6
Continuous
 62
     7
370
     9
100
AcDbLine
 10
1074.055888260212
 20
77.0210071156576
 30
0.0
 11
1075.171243331862
 21
76.7221486249349
 31
0.0
  0
LINE
  5
21B
330
1F
100
AcDbEntity
  8
1
  6
Continuous
 62
     7
370
     9
100
AcDbLine
 10
1075.171243331862
 20
76.7221486249349
 30
0.0
 11
1078.353223847202
 21
79.90412914027439
 31
0.0
  0
LINE
  5
21C
330
1F
100
AcDbEntity
  8
1
  6
Continuous
 62
     7
370
     9
100
AcDbLine
 10
1066.28862251385
 20
55.27760497667185
 30
0.0
 11
1066.28862251385
 21
50.77760497667185
 31
0.0
  0
LINE
  5
21D
330
1F
100
AcDbEntity
  8
1
  6
Continuous
 62
     7
370
     9
100
AcDbLine
 10
1065.28862251385
 20
55.85495524586139
 30
0.0
 11
1066.28862251385
 21
55.2776049766718
 31
0.0
  0
LINE
  5
21E
330
1F
100
AcDbEntity
  8
1
  6
Continuous
 62
     7
370
     9
100
AcDbLine
 10
1065.28862251385
 20
66.27760497667185
 30
0.0
 11
1065.28862251385
 21
55.85495524586139
 31
0.0
  0
LINE
  5
21F
330
1F
100
AcDbEntity
  8
1
  6
Continuous
 62
     7
370
     9
100
AcDbLine
 10
1032.78862251385
 20
55.2776049766718
 30
0.0
 11
1032.78862251385
 21
50.7776049766718
 31
0.0
  0
LINE
  5
220
330
1F
100
AcDbEntity
  8
1
  6
Continuous
 62
     7
370
     9
100
AcDbLine
 10
1032.78862251385
 20
55.27760497667174
 30
0.0
 11
1033.78862251385
 21
55.85495524586139
 31
0.0
  0
LINE
  5
221
330
1F
100
AcDbEntity
  8
1
  6
Continuous
 62
     7
370
     9
100
AcDbLine
 10
1033.78862251385
 20
66.2776049766718
 30
0.0
 11
1033.78862251385
 21
55.85495524586139
 31
0.0
  0
LINE
  5
222
330
1F
100
AcDbEntity
  8
1
  6
Continuous
 62
     7
370
     9
100
AcDbLine
 10
1041.7466716969
 20
86.69375006893307
 30
0.0
 11
1044.412098350248
 21
91.92494442044568
 31
0.0
  0
LINE
  5
223
330
1F
100
AcDbEntity
  8
1
  6
Continuous
 62
     7
370
     9
100
AcDbLine
 10
1033.78862251385
 20
66.2776049766718
 30
0.0
 11
1035.602894252172
 21
71.86135923766835
 31
0.0
  0
LINE
  5
224
330
1F
100
AcDbEntity
  8
1
  6
Continuous
 62
     7
370
     9
100
AcDbLine
 10
1066.449160615693
 20
69.53042450288098
 30
0.0
 11
1066.685961957624
 21
69.65108081306931
 31
0.0
  0
LINE
  5
225
330
1F
100
AcDbEntity
  8
1
  6
Continuous
 62
     7
370
     9
100
AcDbLine
 10
1065.206495574304
 20
66.53036570647271
 30
0.0
 11
1065.28862251385
 21
66.27760497667185
 31
0.0
  0
LINE
  5
226
330
1F
100
AcDbEntity
  8
1
  6
Continuous
 62
     7
370
     9
100
AcDbLine
 10
1051.483166162113
 20
100.4102257946842
 30
0.0
 11
1075.171243331862
 21
76.7221486249349
 31
0.0
  0
LINE
  5
227
330
1F
100
AcDbEntity
  8
1
  6
Continuous
 62
     7
370
     9
100
AcDbLine
 10
1051.782024652836
 20
99.2948707230338
 30
0.0
 11
1074.055888260212
 21
77.02100711565748
 31
0.0
  0
LINE
  5
228
330
1F
100
AcDbEntity
  8
1
  6
Continuous
 62
     7
370
     9
100
AcDbLine
 10
1032.78862251385
 20
55.27760497667185
 30
0.0
 11
1066.28862251385
 21
55.27760497667185
 31
0.0
  0
LINE
  5
229
330
1F
100
AcDbEntity
  8
1
  6
Continuous
 62
     7
370
     9
100
AcDbLine
 10
1033.78862251385
 20
55.85495524586139
 30
0.0
 11
1065.28862251385
 21
55.85495524586139
 31
0.0
  0
LINE
  5
22A
330
1F
100
AcDbEntity
  8
1
  6
Continuous
 62
     7
370
     9
100
AcDbLine
 10
1056.079360239826
 20
103.5922063100237
 30
0.0
 11
1078.353223847202
 21
81.31834270264744
 31
0.0
  0
LINE
  5
22B
330
1F
100
AcDbEntity
  8
1
  6
Continuous
 62
     7
370
     9
100
AcDbLine
 10
1064.350558501252
 20
68.64230020568806
 30
0.0
 11
1056.579062528165
 21
71.86135923766852
 31
0.0
  0
LINE
  5
22C
330
1F
100
AcDbEntity
  8
1
  6
Continuous
 62
     7
370
     9
100
AcDbLine
 10
1044.412098350248
 20
91.92494442044574
 30
0.0
 11
1066.685961957624
 21
69.65108081306943
 31
0.0
  0
LINE
  5
22D
330
1F
100
AcDbEntity
  8
1
  6
Continuous
 62
     7
370
     9
100
AcDbLine
 10
1041.7466716969
 20
86.69375006893313
 30
0.0
 11
1054.871955746979
 21
73.56846601885508
 31
0.0
  0
LINE
  5
22E
330
1F
100
AcDbEntity
  8
1
  6
Continuous
 62
     7
370
     9
100
AcDbLine
 10
1035.602894252172
 20
71.86135923766852
 30
0.0
 11
1054.164848965792
 21
71.86135923766852
 31
0.0
  0
LINE
  5
22F
330
1F
100
AcDbEntity
  8
1
  6
Continuous
 62
     7
370
     9
100
AcDbLine
 10
1033.78862251385
 20
66.2776049766722
 30
0.0
 11
1065.28862251385
 21
66.2776049766722
 31
0.0
  0
ARC
  5
230
330
1F
100
AcDbEntity
  8
1
  6
Continuous
 62
     7
370
     9
100
AcDbCircle
 10
1055.372253458639
 20
102.8850995288371
 30
0.0
 40
1.0
100
AcDbArc
 50
45.0000000000046
 51
135.0000000000046
  0
ARC
  5
231
330
1F
100
AcDbEntity
  8
1
  6
Continuous
 62
     7
370
     9
100
AcDbCircle
 10
1077.646117066015
 20
80.61123592146083
 30
0.0
 40
1.0
100
AcDbArc
 50
314.9999999999974
 51
45.0000000000046
  0
ARC
  5
232
330
1F
100
AcDbEntity
  8
1
  6
Continuous
 62
     7
370
     9
100
AcDbCircle
 10
1065.28862251385
 20
50.77760497667185
 30
0.0
 40
1.0
100
AcDbArc
 50
269.9999999999998
 51
0.0
  0
ARC
  5
233
330
1F
100
AcDbEntity
  8
1
  6
Continuous
 62
     7
370
     9
100
AcDbCircle
 10
1033.78862251385
 20
50.77760497667174
 30
0.0
 40
1.0
100
AcDbArc
 50
179.9999999999998
 51
269.9999999999998
  0
ARC
  5
234
330
1F
100
AcDbEntity
  8
1
  6
Continuous
 62
     7
370
     9
100
AcDbCircle
 10
1060.93862251385
 20
70.05557036561862
 30
0.0
 40
25.40000000000002
100
AcDbArc
 50
139.0768282447075
 51
175.9231717552917
  0
ARC
  5
235
330
1F
100
AcDbEntity
  8
1
  6
Continuous
 62
     7
370
     9
100
AcDbCircle
 10
1067.584136865042
 20
67.30290819241009
 30
0.0
 40
2.5
100
AcDbArc
 50
117.0000000000018
 51
198.000000000002
  0
LINE
  5
236
330
1F
100
AcDbEntity
  8
1
  6
Continuous
 62
     7
370
     9
100
AcDbLine
 10
1100.238000158052
 20
84.53505833566038
 30
0.0
 11
1100.238000158052
 21
80.78801261675767
 31
0.0
  0
LINE
  5
237
330
1F
100
AcDbEntity
  8
1
  6
Continuous
 62
     7
370
     9
100
AcDbLine
 10
1099.238000158052
 20
55.2776049766718
 30
0.0
 11
1100.238000158052
 21
55.85495524586145
 31
0.0
  0
LINE
  5
238
330
1F
100
AcDbEntity
  8
1
  6
Continuous
 62
     7
370
     9
100
AcDbLine
 10
1099.238000158052
 20
55.27760497667185
 30
0.0
 11
1099.238000158052
 21
50.77760497667185
 31
0.0
  0
LINE
  5
239
330
1F
100
AcDbEntity
  8
1
  6
Continuous
 62
     7
370
     9
100
AcDbLine
 10
1131.738000158052
 20
84.5350583356605
 30
0.0
 11
1131.738000158052
 21
80.78801180375626
 31
0.0
  0
LINE
  5
23A
330
1F
100
AcDbEntity
  8
1
  6
Continuous
 62
     7
370
     9
100
AcDbLine
 10
1131.738000158052
 20
55.85495524586145
 30
0.0
 11
1132.738000158052
 21
55.27760497667185
 31
0.0
  0
LINE
  5
23B
330
1F
100
AcDbEntity
  8
1
  6
Continuous
 62
     7
370
     9
100
AcDbLine
 10
1132.738000158052
 20
55.27760497667191
 30
0.0
 11
1132.738000158052
 21
50.77760497667191
 31
0.0
  0
LINE
  5
23C
330
1F
100
AcDbEntity
  8
1
  6
Continuous
 62
     7
370
     9
100
AcDbLine
 10
1099.238000158052
 20
55.27760497667191
 30
0.0
 11
1132.738000158052
 21
55.27760497667191
 31
0.0
  0
LINE
  5
23D
330
1F
100
AcDbEntity
  8
1
  6
Continuous
 62
     7
370
     9
100
AcDbLine
 10
1100.238000158052
 20
55.85495524586145
 30
0.0
 11
1131.738000158052
 21
55.85495524586145
 31
0.0
  0
LINE
  5
23E
330
1F
100
AcDbEntity
  8
1
  6
Continuous
 62
     7
370
     9
100
AcDbLine
 10
1100.238000158052
 20
49.77760497667197
 30
0.0
 11
1131.738000158052
 21
49.77760497667197
 31
0.0
  0
LINE
  5
23F
330
1F
100
AcDbEntity
  8
1
  6
Continuous
 62
     7
370
     9
100
AcDbLine
 10
1099.238000158052
 20
92.45527450633557
 30
0.0
 11
1099.238000158052
 21
88.56618720980958
 31
0.0
  0
LINE
  5
240
330
1F
100
AcDbEntity
  8
1
  6
Continuous
 62
     7
370
     9
100
AcDbLine
 10
1132.738000158052
 20
92.45527450633557
 30
0.0
 11
1132.738000158052
 21
88.56618671062074
 31
0.0
  0
LINE
  5
241
330
1F
100
AcDbEntity
  8
1
  6
Continuous
 62
     7
370
     9
100
AcDbLine
 10
1100.238000158052
 20
66.2776049766722
 30
0.0
 11
1131.738000158052
 21
66.2776049766722
 31
0.0
  0
LINE
  5
242
330
1F
100
AcDbEntity
  8
1
  6
Continuous
 62
     7
370
     9
100
AcDbLine
 10
1100.238000158052
 20
66.2776049766722
 30
0.0
 11
1100.238000158052
 21
55.8549552458615
 31
0.0
  0
LINE
  5
243
330
1F
100
AcDbEntity
  8
1
  6
Continuous
 62
     7
370
     9
100
AcDbLine
 10
1131.738000158052
 20
66.2776049766722
 30
0.0
 11
1131.738000158052
 21
55.8549552458615
 31
0.0
  0
LINE
  5
244
330
1F
100
AcDbEntity
  8
1
  6
Continuous
 62
     7
370
     9
100
AcDbLine
 10
1102.052271896374
 20
75.59869773824659
 30
0.0
 11
1102.052271896374
 21
71.86135923766852
 31
0.0
  0
LINE
  5
245
330
1F
100
AcDbEntity
  8
1
  6
Continuous
 62
     7
370
     9
100
AcDbLine
 10
1102.052271896374
 20
71.86135923766852
 30
0.0
 11
1100.238000158052
 21
66.2776049766722
 31
0.0
  0
LINE
  5
246
330
1F
100
AcDbEntity
  8
1
  6
Continuous
 62
     7
370
     9
100
AcDbLine
 10
1129.92372841973
 20
71.86135923766852
 30
0.0
 11
1131.738000158052
 21
66.2776049766722
 31
0.0
  0
LINE
  5
247
330
1F
100
AcDbEntity
  8
1
  6
Continuous
 62
     7
370
     9
100
AcDbLine
 10
1129.92372841973
 20
75.59869773824659
 30
0.0
 11
1129.92372841973
 21
71.86135923766852
 31
0.0
  0
ARC
  5
248
330
1F
100
AcDbEntity
  8
1
  6
Continuous
 62
     7
370
     9
100
AcDbCircle
 10
1100.238000158052
 20
50.77760497667185
 30
0.0
 40
1.0
100
AcDbArc
 50
179.9999999999998
 51
269.9999999999998
  0
ARC
  5
249
330
1F
100
AcDbEntity
  8
1
  6
Continuous
 62
     7
370
     9
100
AcDbCircle
 10
1131.738000158052
 20
50.77760497667191
 30
0.0
 40
1.0
100
AcDbArc
 50
269.9999999999998
 51
0.0
  0
ELLIPSE
  5
24A
330
1F
100
AcDbEntity
  8
1
  6
Continuous
 62
     7
370
     9
100
AcDbEllipse
 10
1115.988000158052
 20
92.45527450633557
 30
0.0
 11
-16.74999999999999
 21
5.412074324349161E-14
 31
0.0
210
0.0
220
0.0
230
1.0
 40
0.7071067811865488
 41
0.0
 42
6.283185307179586
  0
ELLIPSE
  5
24B
330
1F
100
AcDbEntity
  8
1
  6
Continuous
 62
     7
370
     9
100
AcDbEllipse
 10
1115.988000158052
 20
88.56618720980964
 30
0.0
 11
-16.74999999999999
 21
-9.489777653560358E-15
 31
0.0
210
0.0
220
0.0
230
1.0
 40
0.7071067811865488
 41
0.0
 42
3.141592653589798
  0
ELLIPSE
  5
24C
330
1F
100
AcDbEntity
  8
1
  6
Continuous
 62
     7
370
     9
100
AcDbEllipse
 10
1115.988000158052
 20
92.45527450633557
 30
0.0
 11
-13.22050000000004
 21
1.336120709845831E-14
 31
0.0
210
0.0
220
0.0
230
1.0
 40
0.7071067811865481
 41
0.0
 42
6.283185307179586
  0
ELLIPSE
  5
24D
330
1F
100
AcDbEntity
  8
1
  6
Continuous
 62
     7
370
     9
100
AcDbEllipse
 10
1115.988000158052
 20
92.45527450633557
 30
0.0
 11
-12.05849999999998
 21
-2.289693929065972E-14
 31
0.0
210
0.0
220
0.0
230
1.0
 40
0.7071067811865466
 41
0.0
 42
6.283185307179586
  0
ELLIPSE
  5
24E
330
1F
100
AcDbEntity
  8
1
  6
Continuous
 62
     7
370
     9
100
AcDbEllipse
 10
1115.988000158052
 20
80.78801261675767
 30
0.0
 11
-15.75000000000006
 21
5.088965409462667E-14
 31
0.0
210
0.0
220
0.0
230
1.0
 40
0.7071067811865507
 41
0.0
 42
3.141592653589799
  0
LINE
  5
24F
330
1F
100
AcDbEntity
  8
1
  6
Continuous
 62
     7
370
     9
100
AcDbLine
 10
1011.78862251385
 20
49.77760497667197
 30
0.0
 11
980.28862251385
 21
49.77760497667197
 31
0.0
  0
LINE
  5
250
330
1F
100
AcDbEntity
  8
1
  6
Continuous
 62
     7
370
     9
100
AcDbLine
 10
1011.78862251385
 20
55.85495524586145
 30
0.0
 11
980.28862251385
 21
55.85495524586145
 31
0.0
  0
LINE
  5
251
330
1F
100
AcDbEntity
  8
1
  6
Continuous
 62
     7
370
     9
100
AcDbLine
 10
1012.78862251385
 20
55.27760497667191
 30
0.0
 11
979.2886225138501
 21
55.27760497667191
 31
0.0
  0
LINE
  5
252
330
1F
100
AcDbEntity
  8
1
  6
Continuous
 62
     7
370
     9
100
AcDbLine
 10
1011.78862251385
 20
88.15793954028578
 30
0.0
 11
1011.78862251385
 21
80.78801261675767
 31
0.0
  0
LINE
  5
253
330
1F
100
AcDbEntity
  8
1
  6
Continuous
 62
     7
370
     9
100
AcDbLine
 10
979.2886225138501
 20
55.27760497667191
 30
0.0
 11
979.2886225138501
 21
50.77760497667191
 31
0.0
  0
LINE
  5
254
330
1F
100
AcDbEntity
  8
1
  6
Continuous
 62
     7
370
     9
100
AcDbLine
 10
980.28862251385
 20
55.85495524586145
 30
0.0
 11
979.2886225138501
 21
55.27760497667185
 31
0.0
  0
LINE
  5
255
330
1F
100
AcDbEntity
  8
1
  6
Continuous
 62
     7
370
     9
100
AcDbLine
 10
979.2886225138501
 20
92.45527450633557
 30
0.0
 11
979.2886225138501
 21
88.56618671062074
 31
0.0
  0
LINE
  5
256
330
1F
100
AcDbEntity
  8
1
  6
Continuous
 62
     7
370
     9
100
AcDbLine
 10
1012.78862251385
 20
92.45527450633557
 30
0.0
 11
1012.78862251385
 21
88.56618720980958
 31
0.0
  0
LINE
  5
257
330
1F
100
AcDbEntity
  8
1
  6
Continuous
 62
     7
370
     9
100
AcDbLine
 10
1012.78862251385
 20
55.2776049766718
 30
0.0
 11
1011.78862251385
 21
55.85495524586145
 31
0.0
  0
LINE
  5
258
330
1F
100
AcDbEntity
  8
1
  6
Continuous
 62
     7
370
     9
100
AcDbLine
 10
980.28862251385
 20
88.15793844995915
 30
0.0
 11
980.28862251385
 21
80.78801342975908
 31
0.0
  0
LINE
  5
259
330
1F
100
AcDbEntity
  8
1
  6
Continuous
 62
     7
370
     9
100
AcDbLine
 10
1012.78862251385
 20
55.27760497667185
 30
0.0
 11
1012.78862251385
 21
50.77760497667185
 31
0.0
  0
LINE
  5
25A
330
1F
100
AcDbEntity
  8
1
  6
Continuous
 62
     7
370
     9
100
AcDbLine
 10
982.1028942521721
 20
71.86135923766852
 30
0.0
 11
980.28862251385
 21
66.2776049766722
 31
0.0
  0
LINE
  5
25B
330
1F
100
AcDbEntity
  8
1
  6
Continuous
 62
     7
370
     9
100
AcDbLine
 10
1009.974350775528
 20
71.86135923766852
 30
0.0
 11
1011.78862251385
 21
66.2776049766722
 31
0.0
  0
LINE
  5
25C
330
1F
100
AcDbEntity
  8
1
  6
Continuous
 62
     7
370
     9
100
AcDbLine
 10
1009.974350775528
 20
76.81697862332464
 30
0.0
 11
1009.974350775528
 21
71.86135923766852
 31
0.0
  0
LINE
  5
25D
330
1F
100
AcDbEntity
  8
1
  6
Continuous
 62
     7
370
     9
100
AcDbLine
 10
1011.78862251385
 20
66.2776049766722
 30
0.0
 11
1011.78862251385
 21
55.8549552458615
 31
0.0
  0
LINE
  5
25E
330
1F
100
AcDbEntity
  8
1
  6
Continuous
 62
     7
370
     9
100
AcDbLine
 10
982.1028942521721
 20
76.81697862332464
 30
0.0
 11
982.1028942521721
 21
71.86135923766852
 31
0.0
  0
LINE
  5
25F
330
1F
100
AcDbEntity
  8
1
  6
Continuous
 62
     7
370
     9
100
AcDbLine
 10
980.28862251385
 20
66.2776049766722
 30
0.0
 11
980.28862251385
 21
55.8549552458615
 31
0.0
  0
LINE
  5
260
330
1F
100
AcDbEntity
  8
1
  6
Continuous
 62
     7
370
     9
100
AcDbLine
 10
1011.78862251385
 20
66.2776049766722
 30
0.0
 11
980.28862251385
 21
66.2776049766722
 31
0.0
  0
LINE
  5
261
330
1F
100
AcDbEntity
  8
1
  6
Continuous
 62
     7
370
     9
100
AcDbLine
 10
982.1028942521721
 20
71.86135923766852
 30
0.0
 11
1009.974350775528
 21
71.86135923766852
 31
0.0
  0
ARC
  5
262
330
1F
100
AcDbEntity
  8
1
  6
Continuous
 62
     7
370
     9
100
AcDbCircle
 10
1011.78862251385
 20
50.77760497667185
 30
0.0
 40
1.0
100
AcDbArc
 50
269.9999999999998
 51
0.0
  0
ARC
  5
263
330
1F
100
AcDbEntity
  8
1
  6
Continuous
 62
     7
370
     9
100
AcDbCircle
 10
980.28862251385
 20
50.77760497667191
 30
0.0
 40
1.0
100
AcDbArc
 50
179.9999999999998
 51
270.0000000000061
  0
ELLIPSE
  5
264
330
1F
100
AcDbEntity
  8
1
  6
Continuous
 62
     7
370
     9
100
AcDbEllipse
 10
996.0386225138501
 20
92.45527450633557
 30
0.0
 11
16.74999999999999
 21
0.0
 31
0.0
210
0.0
220
0.0
230
1.0
 40
0.7071067811865489
 41
0.0
 42
3.141592653589799
  0
ELLIPSE
  5
265
330
1F
100
AcDbEntity
  8
1
  6
Continuous
 62
     7
370
     9
100
AcDbEllipse
 10
996.0386225138501
 20
88.56618720980964
 30
0.0
 11
16.74999999999999
 21
0.0
 31
0.0
210
0.0
220
0.0
230
1.0
 40
0.7071067811865488
 41
-3.141592653589786
 42
-2.794302630622657
  0
ELLIPSE
  5
266
330
1F
100
AcDbEntity
  8
1
  6
Continuous
 62
     7
370
     9
100
AcDbEllipse
 10
996.03862251385
 20
80.78801261675767
 30
0.0
 11
15.75000000000006
 21
0.0
 31
0.0
210
0.0
220
0.0
230
1.0
 40
0.7071067811865507
 41
-3.141592653589787
 42
-2.656878452691518
  0
ELLIPSE
  5
267
330
1F
100
AcDbEntity
  8
1
  6
Continuous
 62
     7
370
     9
100
AcDbEllipse
 10
996.0386225138501
 20
88.15793891934567
 30
0.0
 11
-15.75000000000006
 21
5.088965409462667E-14
 31
0.0
210
0.0
220
0.0
230
1.0
 40
0.7071067811865461
 41
-3.141592653589786
 42
0.0000000000000062
  0
ELLIPSE
  5
268
330
1F
100
AcDbEntity
  8
1
  6
Continuous
 62
     7
370
     9
100
AcDbEllipse
 10
996.0386225138501
 20
88.56618720980964
 30
0.0
 11
16.74999999999999
 21
0.0
 31
0.0
210
0.0
220
0.0
230
1.0
 40
0.7071067811865488
 41
0.0
 42
3.1415926535898
  0
ELLIPSE
  5
269
330
1F
100
AcDbEntity
  8
1
  6
Continuous
 62
     7
370
     9
100
AcDbEllipse
 10
996.0386225138501
 20
88.56618720980964
 30
0.0
 11
16.74999999999999
 21
0.0
 31
0.0
210
0.0
220
0.0
230
1.0
 40
0.7071067811865488
 41
-0.3472900229671358
 42
0.0000000000000062
  0
ELLIPSE
  5
26A
330
1F
100
AcDbEntity
  8
1
  6
Continuous
 62
     7
370
     9
100
AcDbEllipse
 10
996.03862251385
 20
80.78801261675767
 30
0.0
 11
15.75000000000006
 21
0.0
 31
0.0
210
0.0
220
0.0
230
1.0
 40
0.7071067811865507
 41
-0.4847142008982619
 42
0.0000000000000062
  0
ELLIPSE
  5
26B
330
1F
100
AcDbEntity
  8
1
  6
Continuous
 62
     7
370
     9
100
AcDbEllipse
 10
996.03862251385
 20
80.78801261675767
 30
0.0
 11
15.75000000000006
 21
0.0
 31
0.0
210
0.0
220
0.0
230
1.0
 40
0.7071067811865507
 41
0.0
 42
3.141592653589799
  0
ELLIPSE
  5
26C
330
1F
100
AcDbEntity
  8
1
  6
Continuous
 62
     7
370
     9
100
AcDbEllipse
 10
996.03862251385
 20
76.81697862332464
 30
0.0
 11
-13.93572826167792
 21
-7.895341053358854E-15
 31
0.0
210
0.0
220
0.0
230
1.0
 40
0.7087373734725285
 41
-3.141592653589788
 42
0.0000000000000062
  0
LINE
  5
26D
330
1F
100
AcDbEntity
  8
1
  6
Continuous
 62
     7
370
     9
100
AcDbLine
 10
1059.473745402502
 20
156.7993130912101
 30
0.0
 11
1055.549030153936
 21
156.7993130912101
 31
0.0
  0
LINE
  5
26E
330
1F
100
AcDbEntity
  8
1
  6
Continuous
 62
     7
370
     9
100
AcDbLine
 10
1067.393961573177
 20
124.2993130912102
 30
0.0
 11
1063.504873777463
 21
124.2993130912102
 31
0.0
  0
LINE
  5
26F
330
1F
100
AcDbEntity
  8
1
  6
Continuous
 62
     7
370
     9
100
AcDbLine
 10
1067.393961573177
 20
157.7993130912101
 30
0.0
 11
1063.504874276651
 21
157.7993130912101
 31
0.0
  0
LINE
  5
270
330
1F
100
AcDbEntity
  8
1
  6
Continuous
 62
     7
370
     9
100
AcDbLine
 10
1059.473745402502
 20
125.2993130912101
 30
0.0
 11
1049.538621575195
 21
125.2993130912101
 31
0.0
  0
LINE
  5
271
330
1F
100
AcDbEntity
  8
1
  6
Continuous
 62
     7
370
     9
100
AcDbLine
 10
1048.128715402825
 20
154.7759303628217
 30
0.0
 11
1053.021554443121
 21
156.3883558599907
 31
0.0
  0
LINE
  5
272
330
1F
100
AcDbEntity
  8
1
  6
Continuous
 62
     7
370
     9
100
AcDbLine
 10
1048.128715288633
 20
127.3226958572305
 30
0.0
 11
1053.021554443121
 21
125.7102703224295
 31
0.0
  0
ARC
  5
273
330
1F
100
AcDbEntity
  8
1
  6
Continuous
 62
     7
370
     9
100
AcDbCircle
 10
1049.53862251385
 20
141.0493130912101
 30
0.0
 40
16.75000000000004
100
AcDbArc
 50
70.10174740568038
 51
289.89825259432
  0
ARC
  5
274
330
1F
100
AcDbEntity
  8
1
  6
Continuous
 62
     7
370
     9
100
AcDbCircle
 10
1049.53862251385
 20
141.0493130912101
 30
0.0
 40
15.75000000000004
100
AcDbArc
 50
77.08339346031147
 51
270.0000034146649
  0
ARC
  5
275
330
1F
100
AcDbEntity
  8
1
  6
Continuous
 62
     7
370
     9
100
AcDbCircle
 10
1049.53862251385
 20
141.0493130912101
 30
0.0
 40
13.93572826167793
100
AcDbArc
 50
93.51764719894481
 51
266.4823528010558
  0
ELLIPSE
  5
276
330
1F
100
AcDbEntity
  8
1
  6
Continuous
 62
     7
370
     9
100
AcDbEllipse
 10
1067.393961573177
 20
141.0493130912101
 30
0.0
 11
-2.693605438208364E-15
 21
16.74999999999999
 31
0.0
210
0.0
220
0.0
230
1.0
 40
0.7071067811865489
 41
0.0
 42
6.283185307179586
  0
ELLIPSE
  5
277
330
1F
100
AcDbEntity
  8
1
  6
Continuous
 62
     7
370
     9
100
AcDbEllipse
 10
1063.504874276651
 20
141.0493130912101
 30
0.0
 11
-2.693605438208364E-15
 21
16.74999999999999
 31
0.0
210
0.0
220
0.0
230
1.0
 40
0.7071067811865489
 41
0.0
 42
3.141592653589798
  0
ELLIPSE
  5
278
330
1F
100
AcDbEntity
  8
1
  6
Continuous
 62
     7
370
     9
100
AcDbEllipse
 10
1067.393961573177
 20
141.0493130912101
 30
0.0
 11
1.548722564746331E-14
 21
13.22050000000004
 31
0.0
210
0.0
220
0.0
230
1.0
 40
0.707106781186548
 41
0.0
 42
6.283185307179586
  0
ELLIPSE
  5
279
330
1F
100
AcDbEntity
  8
1
  6
Continuous
 62
     7
370
     9
100
AcDbEllipse
 10
1067.393961573177
 20
141.0493130912101
 30
0.0
 11
-1.532677903955500E-14
 21
12.05849999999998
 31
0.0
210
0.0
220
0.0
230
1.0
 40
0.7071067811865468
 41
0.0
 42
6.283185307179586
  0
ELLIPSE
  5
27A
330
1F
100
AcDbEntity
  8
1
  6
Continuous
 62
     7
370
     9
100
AcDbEllipse
 10
1055.549030153936
 20
141.0493130912101
 30
0.0
 11
-2.532793173240704E-15
 21
-15.75000000000001
 31
0.0
210
0.0
220
0.0
230
1.0
 40
0.7071067811865437
 41
-3.141592653589788
 42
0.0000000000000062
  0
ELLIPSE
  5
27B
330
1F
100
AcDbEntity
  8
1
  6
Continuous
 62
     7
370
     9
100
AcDbEllipse
 10
1049.53862251385
 20
141.0493130912101
 30
0.0
 11
-2.244456782153682E-15
 21
-13.957
 31
0.0
210
0.0
220
0.0
230
1.0
 40
0.558282640750142
 41
-2.959646539718597
 42
-0.1819460989700321
  0
LINE
  5
27C
330
1F
100
AcDbEntity
  8
1
  6
Continuous
 62
     7
370
     9
100
AcDbLine
 10
157.6554190544551
 20
263.0462992006578
 30
0.0
 11
184.8790301301373
 21
235.8226881249758
 31
0.0
  0
LINE
  5
27D
330
1F
100
AcDbEntity
  8
1
  6
Continuous
 62
     7
370
     9
100
AcDbLine
 10
143.5132834307241
 20
248.9041635769268
 30
0.0
 11
152.7056715861492
 21
258.0965517323518
 31
0.0
  0
LINE
  5
27E
330
1F
100
AcDbEntity
  8
1
  6
Continuous
 62
     7
370
     9
100
AcDbLine
 10
179.9292826618313
 20
230.8729406566698
 30
0.0
 11
181.3434962242044
 21
230.8729406566698
 31
0.0
  0
LINE
  5
27F
330
1F
100
AcDbEntity
  8
1
  6
Continuous
 62
     7
370
     9
100
AcDbLine
 10
131.5111279378863
 20
199.9283970084067
 30
0.0
 11
170.0111279378863
 21
199.9283970084067
 31
0.0
  0
LINE
  5
280
330
1F
100
AcDbEntity
  8
1
  6
Continuous
 62
     7
370
     9
100
AcDbLine
 10
152.7056715861492
 20
258.0965517323518
 30
0.0
 11
152.7056715861492
 21
259.5107652947249
 31
0.0
  0
LINE
  5
281
330
1F
100
AcDbEntity
  8
1
  6
Continuous
 62
     7
370
     9
100
AcDbLine
 10
170.0111279378862
 20
219.7121452456055
 30
0.0
 11
170.0111279378862
 21
206.9283970084067
 31
0.0
  0
LINE
  5
282
330
1F
100
AcDbEntity
  8
1
  6
Continuous
 62
     7
370
     9
100
AcDbLine
 10
170.0111279378863
 20
206.9283970084067
 30
0.0
 11
171.0111279378863
 21
205.9283970084067
 31
0.0
  0
LINE
  5
283
330
1F
100
AcDbEntity
  8
1
  6
Continuous
 62
     7
370
     9
100
AcDbLine
 10
170.8898075943266
 20
221.8334655891651
 30
0.0
 11
179.9292826618313
 21
230.8729406566698
 31
0.0
  0
LINE
  5
284
330
1F
100
AcDbEntity
  8
1
  6
Continuous
 62
     7
370
     9
100
AcDbLine
 10
139.4061087587964
 20
240.8433794178566
 30
0.0
 11
143.5132834307241
 21
248.9041635769267
 31
0.0
  0
LINE
  5
285
330
1F
100
AcDbEntity
  8
1
  6
Continuous
 62
     7
370
     9
100
AcDbLine
 10
131.5111279378863
 20
206.9283970084068
 30
0.0
 11
130.5111279378863
 21
205.9283970084068
 31
0.0
  0
LINE
  5
286
330
1F
100
AcDbEntity
  8
1
  6
Continuous
 62
     7
370
     9
100
AcDbLine
 10
134.3067520164079
 20
228.5324432110043
 30
0.0
 11
131.5111279378861
 21
219.9283970084069
 31
0.0
  0
LINE
  5
287
330
1F
100
AcDbEntity
  8
1
  6
Continuous
 62
     7
370
     9
100
AcDbLine
 10
130.5111279378863
 20
205.9283970084069
 30
0.0
 11
130.5111279378863
 21
200.9283970084069
 31
0.0
  0
LINE
  5
288
330
1F
100
AcDbEntity
  8
1
  6
Continuous
 62
     7
370
     9
100
AcDbLine
 10
152.7056715861492
 20
259.510765294725
 30
0.0
 11
156.2412054920819
 21
263.0462992006577
 31
0.0
  0
LINE
  5
289
330
1F
100
AcDbEntity
  8
1
  6
Continuous
 62
     7
370
     9
100
AcDbLine
 10
181.3434962242044
 20
230.8729406566698
 30
0.0
 11
184.8790301301372
 21
234.4084745626026
 31
0.0
  0
LINE
  5
28A
330
1F
100
AcDbEntity
  8
1
  6
Continuous
 62
     7
370
     9
100
AcDbLine
 10
131.5111279378862
 20
219.9283970084069
 30
0.0
 11
131.5111279378862
 21
206.9283970084069
 31
0.0
  0
LINE
  5
28B
330
1F
100
AcDbEntity
  8
1
  6
Continuous
 62
     7
370
     9
100
AcDbLine
 10
171.0111279378863
 20
205.9283970084067
 30
0.0
 11
171.0111279378863
 21
200.9283970084067
 31
0.0
  0
LINE
  5
28C
330
1F
100
AcDbEntity
  8
1
  6
Continuous
 62
     7
370
     9
100
AcDbLine
 10
130.5111279378863
 20
205.9283970084067
 30
0.0
 11
171.0111279378863
 21
205.9283970084067
 31
0.0
  0
LINE
  5
28D
330
1F
100
AcDbEntity
  8
1
  6
Continuous
 62
     7
370
     9
100
AcDbLine
 10
131.5111279378862
 20
206.9283970084067
 30
0.0
 11
170.0111279378862
 21
206.9283970084067
 31
0.0
  0
LINE
  5
28E
330
1F
100
AcDbEntity
  8
1
  6
Continuous
 62
     7
370
     9
100
AcDbLine
 10
152.7056715861493
 20
259.510765294725
 30
0.0
 11
181.3434962242044
 21
230.8729406566698
 31
0.0
  0
LINE
  5
28F
330
1F
100
AcDbEntity
  8
1
  6
Continuous
 62
     7
370
     9
100
AcDbLine
 10
152.7056715861493
 20
258.0965517323519
 30
0.0
 11
179.9292826618313
 21
230.8729406566698
 31
0.0
  0
LINE
  5
290
330
1F
100
AcDbEntity
  8
1
  6
Continuous
 62
     7
370
     9
100
AcDbLine
 10
143.5132834307242
 20
248.9041635769269
 30
0.0
 11
155.7108754061922
 21
236.706571601459
 31
0.0
  0
LINE
  5
291
330
1F
100
AcDbEntity
  8
1
  6
Continuous
 62
     7
370
     9
100
AcDbLine
 10
131.5111279378862
 20
219.9283970084072
 30
0.0
 11
148.7611279378862
 21
219.9283970084072
 31
0.0
  0
LINE
  5
292
330
1F
100
AcDbEntity
  8
1
  6
Continuous
 62
     7
370
     9
100
AcDbLine
 10
139.4061087587966
 20
240.8433794178569
 30
0.0
 11
150.0099381844616
 21
230.2395499921919
 31
0.0
  0
LINE
  5
293
330
1F
100
AcDbEntity
  8
1
  6
Continuous
 62
     7
370
     9
100
AcDbLine
 10
134.3067520164083
 20
228.5324432110053
 30
0.0
 11
149.302831403275
 21
228.5324432110053
 31
0.0
  0
LINE
  5
294
330
1F
100
AcDbEntity
  8
1
  6
Continuous
 62
     7
370
     9
100
AcDbLine
 10
151.7170449656481
 20
228.5324432110053
 30
0.0
 11
169.3156098078411
 21
221.2428789750658
 31
0.0
  0
LINE
  5
295
330
1F
100
AcDbEntity
  8
1
  6
Continuous
 62
     7
370
     9
100
AcDbLine
 10
155.7108754061922
 20
233.8781444767128
 30
0.0
 11
150.7611279378862
 21
228.9283970084068
 31
0.0
  0
LINE
  5
296
330
1F
100
AcDbEntity
  8
1
  6
Continuous
 62
     7
370
     9
100
AcDbLine
 10
150.7611279378862
 20
228.9283970084068
 30
0.0
 11
150.7611279378862
 21
221.9283970084072
 31
0.0
  0
ARC
  5
297
330
1F
100
AcDbEntity
  8
1
  6
Continuous
 62
     7
370
     9
100
AcDbCircle
 10
165.1111279378862
 20
222.9844323883529
 30
0.0
 40
31.3
100
AcDbArc
 50
145.2097805065037
 51
169.7902194934961
  0
ARC
  5
298
330
1F
100
AcDbEntity
  8
1
  6
Continuous
 62
     7
370
     9
100
AcDbCircle
 10
131.5111279378863
 20
200.9283970084068
 30
0.0
 40
1.0
100
AcDbArc
 50
179.9999999999998
 51
269.9999999999998
  0
ARC
  5
299
330
1F
100
AcDbEntity
  8
1
  6
Continuous
 62
     7
370
     9
100
AcDbCircle
 10
184.1719233489506
 20
235.1155813437892
 30
0.0
 40
1.0
100
AcDbArc
 50
314.9999999999997
 51
45.0
  0
ARC
  5
29A
330
1F
100
AcDbEntity
  8
1
  6
Continuous
 62
     7
370
     9
100
AcDbCircle
 10
170.0111279378863
 20
200.9283970084067
 30
0.0
 40
1.0
100
AcDbArc
 50
269.9999999999998
 51
0.0
  0
ARC
  5
29B
330
1F
100
AcDbEntity
  8
1
  6
Continuous
 62
     7
370
     9
100
AcDbCircle
 10
156.9483122732685
 20
262.3391924194711
 30
0.0
 40
1.0
100
AcDbArc
 50
45.0
 51
135.0
  0
ARC
  5
29C
330
1F
100
AcDbEntity
  8
1
  6
Continuous
 62
     7
370
     9
100
AcDbCircle
 10
173.0111279378863
 20
219.7121452456055
 30
0.0
 40
3.0
100
AcDbArc
 50
135.0000000000008
 51
180.0000000000007
  0
ARC
  5
29D
330
1F
100
AcDbEntity
  8
1
  6
Continuous
 62
     7
370
     9
100
AcDbCircle
 10
154.2966618438191
 20
235.2923580390859
 30
0.0
 40
2.0
100
AcDbArc
 50
315.0000000000008
 51
45.0
  0
ARC
  5
29E
330
1F
100
AcDbEntity
  8
1
  6
Continuous
 62
     7
370
     9
100
AcDbCircle
 10
148.7611279378862
 20
221.9283970084072
 30
0.0
 40
2.0
100
AcDbArc
 50
270.0000000000013
 51
0.0
  0
LINE
  5
29F
330
1F
100
AcDbEntity
  8
1
  6
Continuous
 62
     7
370
     9
100
AcDbLine
 10
255.0861369113238
 20
241.3073943834755
 30
0.0
 11
255.0861369113238
 21
206.9283970084066
 31
0.0
  0
LINE
  5
2A0
330
1F
100
AcDbEntity
  8
1
  6
Continuous
 62
     7
370
     9
100
AcDbLine
 10
216.5861369113238
 20
199.9283970084066
 30
0.0
 11
255.0861369113238
 21
199.9283970084066
 31
0.0
  0
LINE
  5
2A1
330
1F
100
AcDbEntity
  8
1
  6
Continuous
 62
     7
370
     9
100
AcDbLine
 10
255.0861369113238
 20
206.9283970084067
 30
0.0
 11
256.0861369113238
 21
205.9283970084066
 31
0.0
  0
LINE
  5
2A2
330
1F
100
AcDbEntity
  8
1
  6
Continuous
 62
     7
370
     9
100
AcDbLine
 10
216.5861369113238
 20
206.9283970084067
 30
0.0
 11
215.5861369113238
 21
205.9283970084067
 31
0.0
  0
LINE
  5
2A3
330
1F
100
AcDbEntity
  8
1
  6
Continuous
 62
     7
370
     9
100
AcDbLine
 10
215.5861369113238
 20
205.9283970084068
 30
0.0
 11
215.5861369113238
 21
200.9283970084068
 31
0.0
  0
LINE
  5
2A4
330
1F
100
AcDbEntity
  8
1
  6
Continuous
 62
     7
370
     9
100
AcDbLine
 10
216.5861369113238
 20
241.3073943834755
 30
0.0
 11
216.5861369113238
 21
206.9283970084068
 31
0.0
  0
LINE
  5
2A5
330
1F
100
AcDbEntity
  8
1
  6
Continuous
 62
     7
370
     9
100
AcDbLine
 10
256.0861369113238
 20
205.9283970084066
 30
0.0
 11
256.0861369113238
 21
200.9283970084067
 31
0.0
  0
LINE
  5
2A6
330
1F
100
AcDbEntity
  8
1
  6
Continuous
 62
     7
370
     9
100
AcDbLine
 10
215.5861369113238
 20
205.9283970084068
 30
0.0
 11
256.0861369113238
 21
205.9283970084068
 31
0.0
  0
LINE
  5
2A7
330
1F
100
AcDbEntity
  8
1
  6
Continuous
 62
     7
370
     9
100
AcDbLine
 10
216.5861369113238
 20
206.9283970084067
 30
0.0
 11
255.0861369113238
 21
206.9283970084067
 31
0.0
  0
LINE
  5
2A8
330
1F
100
AcDbEntity
  8
1
  6
Continuous
 62
     7
370
     9
100
AcDbLine
 10
215.8361369113238
 20
245.1918529756975
 30
0.0
 11
215.8361369113238
 21
249.4344936628168
 31
0.0
  0
LINE
  5
2A9
330
1F
100
AcDbEntity
  8
1
  6
Continuous
 62
     7
370
     9
100
AcDbLine
 10
255.8361369113238
 20
249.4344936628168
 30
0.0
 11
255.8361369113238
 21
245.1918529756975
 31
0.0
  0
LINE
  5
2AA
330
1F
100
AcDbEntity
  8
1
  6
Continuous
 62
     7
370
     9
100
AcDbLine
 10
234.8361369113238
 20
221.4393750240238
 30
0.0
 11
220.2918957102017
 21
228.4873556513098
 31
0.0
  0
LINE
  5
2AB
330
1F
100
AcDbEntity
  8
1
  6
Continuous
 62
     7
370
     9
100
AcDbLine
 10
236.8361369113238
 20
221.4393750240238
 30
0.0
 11
251.3803781124459
 21
228.4873556513098
 31
0.0
  0
ARC
  5
2AC
330
1F
100
AcDbEntity
  8
1
  6
Continuous
 62
     7
370
     9
100
AcDbCircle
 10
216.5861369113238
 20
200.9283970084068
 30
0.0
 40
1.0
100
AcDbArc
 50
179.9999999999998
 51
269.9999999999998
  0
ARC
  5
2AD
330
1F
100
AcDbEntity
  8
1
  6
Continuous
 62
     7
370
     9
100
AcDbCircle
 10
255.0861369113238
 20
200.9283970084066
 30
0.0
 40
1.0
100
AcDbArc
 50
269.9999999999998
 51
0.0
  0
ELLIPSE
  5
2AE
330
1F
100
AcDbEntity
  8
1
  6
Continuous
 62
     7
370
     9
100
AcDbEllipse
 10
235.8361369113238
 20
249.4344936628168
 30
0.0
 11
-20.0
 21
2.449293598294707E-15
 31
0.0
210
0.0
220
0.0
230
1.0
 40
0.7159456159513808
 41
0.0
 42
6.283185307179586
  0
ELLIPSE
  5
2AF
330
1F
100
AcDbEntity
  8
1
  6
Continuous
 62
     7
370
     9
100
AcDbEllipse
 10
235.8361369113238
 20
249.4344936628168
 30
0.0
 11
-16.62450000000001
 21
1.680143620954726E-14
 31
0.0
210
0.0
220
0.0
230
1.0
 40
0.707106781186547
 41
0.0
 42
6.283185307179586
  0
ELLIPSE
  5
2B0
330
1F
100
AcDbEntity
  8
1
  6
Continuous
 62
     7
370
     9
100
AcDbEllipse
 10
235.8361369113238
 20
249.4344936628168
 30
0.0
 11
-15.1455
 21
1.854788809648624E-15
 31
0.0
210
0.0
220
0.0
230
1.0
 40
0.7071067811865472
 41
0.0
 42
6.283185307179586
  0
ELLIPSE
  5
2B1
330
1F
100
AcDbEntity
  8
1
  6
Continuous
 62
     7
370
     9
100
AcDbEllipse
 10
235.8361369113238
 20
245.1918529756975
 30
0.0
 11
-19.99999999999997
 21
6.462178297730338E-14
 31
0.0
210
0.0
220
0.0
230
1.0
 40
0.7159456159513808
 41
0.0
 42
3.141592653589799
  0
LINE
  5
2B2
330
1F
100
AcDbEntity
  8
1
  6
Continuous
 62
     7
370
     9
100
AcDbLine
 10
61.01112793788627
 20
244.4847461945108
 30
0.0
 11
61.01112793788627
 21
219.9283970084071
 31
0.0
  0
LINE
  5
2B3
330
1F
100
AcDbEntity
  8
1
  6
Continuous
 62
     7
370
     9
100
AcDbLine
 10
99.51112793788627
 20
206.9283970084067
 30
0.0
 11
61.01112793788627
 21
206.9283970084067
 31
0.0
  0
LINE
  5
2B4
330
1F
100
AcDbEntity
  8
1
  6
Continuous
 62
     7
370
     9
100
AcDbLine
 10
100.5111279378863
 20
205.9283970084068
 30
0.0
 11
60.01112793788627
 21
205.9283970084068
 31
0.0
  0
LINE
  5
2B5
330
1F
100
AcDbEntity
  8
1
  6
Continuous
 62
     7
370
     9
100
AcDbLine
 10
60.01112793788627
 20
205.9283970084066
 30
0.0
 11
60.01112793788627
 21
200.9283970084067
 31
0.0
  0
LINE
  5
2B6
330
1F
100
AcDbEntity
  8
1
  6
Continuous
 62
     7
370
     9
100
AcDbLine
 10
99.51112793788627
 20
244.4847464813582
 30
0.0
 11
99.51112793788627
 21
219.9283970084073
 31
0.0
  0
LINE
  5
2B7
330
1F
100
AcDbEntity
  8
1
  6
Continuous
 62
     7
370
     9
100
AcDbLine
 10
99.51112793788627
 20
206.9283970084067
 30
0.0
 11
100.5111279378863
 21
205.9283970084067
 31
0.0
  0
LINE
  5
2B8
330
1F
100
AcDbEntity
  8
1
  6
Continuous
 62
     7
370
     9
100
AcDbLine
 10
100.5111279378863
 20
205.9283970084068
 30
0.0
 11
100.5111279378863
 21
200.9283970084068
 31
0.0
  0
LINE
  5
2B9
330
1F
100
AcDbEntity
  8
1
  6
Continuous
 62
     7
370
     9
100
AcDbLine
 10
61.01112793788627
 20
206.9283970084067
 30
0.0
 11
60.01112793788627
 21
205.9283970084066
 31
0.0
  0
LINE
  5
2BA
330
1F
100
AcDbEntity
  8
1
  6
Continuous
 62
     7
370
     9
100
AcDbLine
 10
99.51112793788627
 20
199.9283970084066
 30
0.0
 11
61.01112793788627
 21
199.9283970084066
 31
0.0
  0
LINE
  5
2BB
330
1F
100
AcDbEntity
  8
1
  6
Continuous
 62
     7
370
     9
100
AcDbLine
 10
100.2611279378863
 20
245.1918529756975
 30
0.0
 11
100.2611279378863
 21
249.4344936628168
 31
0.0
  0
LINE
  5
2BC
330
1F
100
AcDbEntity
  8
1
  6
Continuous
 62
     7
370
     9
100
AcDbLine
 10
60.26112793788627
 20
249.4344936628168
 30
0.0
 11
60.26112793788627
 21
245.1918529756975
 31
0.0
  0
LINE
  5
2BD
330
1F
100
AcDbEntity
  8
1
  6
Continuous
 62
     7
370
     9
100
AcDbLine
 10
63.81112793788628
 20
229.2099257454626
 30
0.0
 11
63.81112793788628
 21
228.5324432110053
 31
0.0
  0
LINE
  5
2BE
330
1F
100
AcDbEntity
  8
1
  6
Continuous
 62
     7
370
     9
100
AcDbLine
 10
96.71112793788626
 20
229.2099257454626
 30
0.0
 11
96.71112793788626
 21
228.5324432110053
 31
0.0
  0
LINE
  5
2BF
330
1F
100
AcDbEntity
  8
1
  6
Continuous
 62
     7
370
     9
100
AcDbLine
 10
61.01112793788627
 20
219.9283970084072
 30
0.0
 11
99.51112793788627
 21
219.9283970084072
 31
0.0
  0
LINE
  5
2C0
330
1F
100
AcDbEntity
  8
1
  6
Continuous
 62
     7
370
     9
100
AcDbLine
 10
63.81112793788628
 20
228.5324432110053
 30
0.0
 11
96.71112793788626
 21
228.5324432110053
 31
0.0
  0
LINE
  5
2C1
330
1F
100
AcDbEntity
  8
1
  6
Continuous
 62
     7
370
     9
100
AcDbLine
 10
61.01112793788627
 20
219.9283970084072
 30
0.0
 11
63.83885816046046
 21
228.534722865
 31
0.0
  0
LINE
  5
2C2
330
1F
100
AcDbEntity
  8
1
  6
Continuous
 62
     7
370
     9
100
AcDbLine
 10
96.71112793788632
 20
228.5324432110053
 30
0.0
 11
99.51112793788633
 21
219.9283970084072
 31
0.0
  0
LINE
  5
2C3
330
1F
100
AcDbEntity
  8
1
  6
Continuous
 62
     7
370
     9
100
AcDbLine
 10
61.01112793788627
 20
219.9283970084071
 30
0.0
 11
61.01112793788627
 21
206.9283970084066
 31
0.0
  0
LINE
  5
2C4
330
1F
100
AcDbEntity
  8
1
  6
Continuous
 62
     7
370
     9
100
AcDbLine
 10
99.51112793788627
 20
219.9283970084073
 30
0.0
 11
99.51112793788627
 21
206.9283970084068
 31
0.0
  0
LINE
  5
2C5
330
1F
100
AcDbEntity
  8
1
  6
Continuous
 62
     7
370
     9
100
AcDbLine
 10
61.01112793788639
 20
237.1364894136034
 30
0.0
 11
63.83885816046046
 21
228.5301635570106
 31
0.0
  0
LINE
  5
2C6
330
1F
100
AcDbEntity
  8
1
  6
Continuous
 62
     7
370
     9
100
AcDbLine
 10
96.71112793788632
 20
228.5324432110053
 30
0.0
 11
99.51112793788633
 21
237.1364894136034
 31
0.0
  0
ARC
  5
2C7
330
1F
100
AcDbEntity
  8
1
  6
Continuous
 62
     7
370
     9
100
AcDbCircle
 10
61.01112793788627
 20
200.9283970084066
 30
0.0
 40
1.0
100
AcDbArc
 50
179.9999999999998
 51
270.0000000000029
  0
ARC
  5
2C8
330
1F
100
AcDbEntity
  8
1
  6
Continuous
 62
     7
370
     9
100
AcDbCircle
 10
99.51112793788627
 20
200.9283970084068
 30
0.0
 40
1.0
100
AcDbArc
 50
269.9999999999998
 51
0.0
  0
ELLIPSE
  5
2C9
330
1F
100
AcDbEntity
  8
1
  6
Continuous
 62
     7
370
     9
100
AcDbEllipse
 10
80.26112793788627
 20
245.1918529756975
 30
0.0
 11
19.99999999999997
 21
0.0
 31
0.0
210
0.0
220
0.0
230
1.0
 40
0.7159456159513808
 41
-3.141592653589787
 42
-2.866868264547419
  0
ELLIPSE
  5
2CA
330
1F
100
AcDbEntity
  8
1
  6
Continuous
 62
     7
370
     9
100
AcDbEllipse
 10
80.26112793788627
 20
249.4344936628168
 30
0.0
 11
20.0
 21
0.0
 31
0.0
210
0.0
220
0.0
230
1.0
 40
0.7159456159513807
 41
0.0
 42
3.141592653589799
  0
ELLIPSE
  5
2CB
330
1F
100
AcDbEntity
  8
1
  6
Continuous
 62
     7
370
     9
100
AcDbEllipse
 10
80.26112793788627
 20
244.4847461945108
 30
0.0
 11
-19.25
 21
-1.090616237797236E-14
 31
0.0
210
0.0
220
0.0
230
1.0
 40
0.7071067811865462
 41
-3.141592653589787
 42
0.0000000000000062
  0
ELLIPSE
  5
2CC
330
1F
100
AcDbEntity
  8
1
  6
Continuous
 62
     7
370
     9
100
AcDbEllipse
 10
80.26112793788627
 20
235.2923580390859
 30
0.0
 11
-19.25
 21
6.219846611565460E-14
 31
0.0
210
0.0
220
0.0
230
1.0
 40
0.7071067811865477
 41
-3.031975598601246
 42
-0.1097869518922563
  0
ELLIPSE
  5
2CD
330
1F
100
AcDbEntity
  8
1
  6
Continuous
 62
     7
370
     9
100
AcDbEllipse
 10
80.26112793788627
 20
229.2099257454626
 30
0.0
 11
-16.44999999999999
 21
-9.319811486630919E-15
 31
0.0
210
0.0
220
0.0
230
1.0
 40
0.7072008311485899
 41
-3.141592653589787
 42
0.0000000000000062
  0
ELLIPSE
  5
2CE
330
1F
100
AcDbEntity
  8
1
  6
Continuous
 62
     7
370
     9
100
AcDbEllipse
 10
80.26112793788627
 20
245.1918529756975
 30
0.0
 11
19.99999999999997
 21
0.0
 31
0.0
210
0.0
220
0.0
230
1.0
 40
0.7159456159513808
 41
0.0
 42
3.141592653589799
  0
ELLIPSE
  5
2CF
330
1F
100
AcDbEntity
  8
1
  6
Continuous
 62
     7
370
     9
100
AcDbEllipse
 10
80.26112793788627
 20
245.1918529756975
 30
0.0
 11
19.99999999999997
 21
0.0
 31
0.0
210
0.0
220
0.0
230
1.0
 40
0.7159456159513808
 41
-0.2747243890423627
 42
0.0000000000000062
  0
LINE
  5
2D0
330
1F
100
AcDbEntity
  8
1
  6
Continuous
 62
     7
370
     9
100
AcDbLine
 10
167.3827660000741
 20
294.5034059818446
 30
0.0
 11
157.1250886817179
 21
294.5034059818446
 31
0.0
  0
LINE
  5
2D1
330
1F
100
AcDbEntity
  8
1
  6
Continuous
 62
     7
370
     9
100
AcDbLine
 10
167.3827660000742
 20
333.0034059818446
 30
0.0
 11
157.1250889685653
 21
333.0034059818446
 31
0.0
  0
LINE
  5
2D2
330
1F
100
AcDbEntity
  8
1
  6
Continuous
 62
     7
370
     9
100
AcDbLine
 10
147.3120947454904
 20
298.272076261838
 30
0.0
 11
152.5420214047822
 21
295.6273616419562
 31
0.0
  0
LINE
  5
2D3
330
1F
100
AcDbEntity
  8
1
  6
Continuous
 62
     7
370
     9
100
AcDbLine
 10
147.1957702579743
 20
329.3862311837453
 30
0.0
 11
152.8531406191241
 21
332.0308077282475
 31
0.0
  0
ARC
  5
2D4
330
1F
100
AcDbEntity
  8
1
  6
Continuous
 62
     7
370
     9
100
AcDbCircle
 10
150.7611279378863
 20
313.7534059818446
 30
0.0
 40
19.25
100
AcDbArc
 50
78.83364478241612
 51
281.1663552175839
  0
ARC
  5
2D5
330
1F
100
AcDbEntity
  8
1
  6
Continuous
 62
     7
370
     9
100
AcDbCircle
 10
150.7611279378863
 20
313.7534059818446
 30
0.0
 40
20.25
100
AcDbArc
 50
71.91873792614426
 51
288.081262073856
  0
ARC
  5
2D6
330
1F
100
AcDbEntity
  8
1
  6
Continuous
 62
     7
370
     9
100
AcDbCircle
 10
150.7611279378863
 20
313.7534059818446
 30
0.0
 40
16.45437592147796
100
AcDbArc
 50
97.31167090233494
 51
264.0744284377602
  0
ELLIPSE
  5
2D7
330
1F
100
AcDbEntity
  8
1
  6
Continuous
 62
     7
370
     9
100
AcDbEllipse
 10
171.2672245922962
 20
313.7534059818445
 30
0.0
 11
-2.435582159067750E-15
 21
15.1455
 31
0.0
210
0.0
220
0.0
230
1.0
 40
0.7071067811865474
 41
0.0
 42
6.283185307179586
  0
ELLIPSE
  5
2D8
330
1F
100
AcDbEntity
  8
1
  6
Continuous
 62
     7
370
     9
100
AcDbEllipse
 10
171.2672245922962
 20
313.7534059818445
 30
0.0
 11
1.578347917392600E-14
 21
16.62450000000001
 31
0.0
210
0.0
220
0.0
230
1.0
 40
0.7071067811865469
 41
0.0
 42
6.283185307179586
  0
ELLIPSE
  5
2D9
330
1F
100
AcDbEntity
  8
1
  6
Continuous
 62
     7
370
     9
100
AcDbEllipse
 10
171.2672245922962
 20
313.7534059818445
 30
0.0
 11
-3.216245299353271E-15
 21
19.99999999999999
 31
0.0
210
0.0
220
0.0
230
1.0
 40
0.7159456159513808
 41
0.0
 42
6.283185307179586
  0
ELLIPSE
  5
2DA
330
1F
100
AcDbEntity
  8
1
  6
Continuous
 62
     7
370
     9
100
AcDbEllipse
 10
157.1250889685653
 20
313.7534059818446
 30
0.0
 11
-3.095636100627525E-15
 21
-19.25
 31
0.0
210
0.0
220
0.0
230
1.0
 40
0.7071067811865477
 41
-3.141592653589787
 42
0.0000000000000062
  0
ELLIPSE
  5
2DB
330
1F
100
AcDbEntity
  8
1
  6
Continuous
 62
     7
370
     9
100
AcDbEllipse
 10
151.0411095530664
 20
313.7534059818446
 30
0.0
 11
0.4519742581968568
 21
-16.45127422665609
 31
0.0
210
0.0
220
0.0
230
1.0
 40
0.7068399213211903
 41
-2.84367657841341
 42
-0.365041667107227
  0
LINE
  5
2DC
330
1F
100
AcDbEntity
  8
1
  6
Continuous
 62
     7
370
     9
100
AcDbLine
 10
489.4274079856328
 20
269.6372894583272
 30
0.0
 11
489.4274079856328
 21
271.0515030207004
 31
0.0
  0
LINE
  5
2DD
330
1F
100
AcDbEntity
  8
1
  6
Continuous
 62
     7
370
     9
100
AcDbLine
 10
512.8667478138531
 20
221.2948833560272
 30
0.0
 11
512.8667478138531
 21
207.9283970084066
 31
0.0
  0
LINE
  5
2DE
330
1F
100
AcDbEntity
  8
1
  6
Continuous
 62
     7
370
     9
100
AcDbLine
 10
462.8667478138531
 20
206.9283970084066
 30
0.0
 11
463.866747813853
 21
207.9283970084066
 31
0.0
  0
LINE
  5
2DF
330
1F
100
AcDbEntity
  8
1
  6
Continuous
 62
     7
370
     9
100
AcDbLine
 10
463.8667478138531
 20
225.0642267736223
 30
0.0
 11
463.8667478138531
 21
207.9283970084066
 31
0.0
  0
LINE
  5
2E0
330
1F
100
AcDbEntity
  8
1
  6
Continuous
 62
     7
370
     9
100
AcDbLine
 10
525.4898538261468
 20
234.9890571801863
 30
0.0
 11
529.0253877320795
 21
238.5245910861191
 31
0.0
  0
LINE
  5
2E1
330
1F
100
AcDbEntity
  8
1
  6
Continuous
 62
     7
370
     9
100
AcDbLine
 10
512.8667478138531
 20
207.9283970084066
 30
0.0
 11
513.8667478138531
 21
206.9283970084066
 31
0.0
  0
LINE
  5
2E2
330
1F
100
AcDbEntity
  8
1
  6
Continuous
 62
     7
370
     9
100
AcDbLine
 10
513.8667478138531
 20
206.9283970084066
 30
0.0
 11
513.8667478138531
 21
201.9283970084066
 31
0.0
  0
LINE
  5
2E3
330
1F
100
AcDbEntity
  8
1
  6
Continuous
 62
     7
370
     9
100
AcDbLine
 10
464.8667478138531
 20
199.9283970084066
 30
0.0
 11
511.8667478138531
 21
199.9283970084066
 31
0.0
  0
LINE
  5
2E4
330
1F
100
AcDbEntity
  8
1
  6
Continuous
 62
     7
370
     9
100
AcDbLine
 10
462.8667478138531
 20
206.9283970084066
 30
0.0
 11
462.8667478138531
 21
201.9283970084066
 31
0.0
  0
LINE
  5
2E5
330
1F
100
AcDbEntity
  8
1
  6
Continuous
 62
     7
370
     9
100
AcDbLine
 10
489.427407985633
 20
271.0515030207004
 30
0.0
 11
492.9629418915656
 21
274.587036926633
 31
0.0
  0
LINE
  5
2E6
330
1F
100
AcDbEntity
  8
1
  6
Continuous
 62
     7
370
     9
100
AcDbLine
 10
529.0253877320796
 20
241.3530182108653
 30
0.0
 11
495.7913690163118
 21
274.587036926633
 31
0.0
  0
LINE
  5
2E7
330
1F
100
AcDbEntity
  8
1
  6
Continuous
 62
     7
370
     9
100
AcDbLine
 10
514.6241071267337
 20
225.5375240431464
 30
0.0
 11
524.0756402637737
 21
234.9890571801863
 31
0.0
  0
LINE
  5
2E8
330
1F
100
AcDbEntity
  8
1
  6
Continuous
 62
     7
370
     9
100
AcDbLine
 10
477.3105465573906
 20
257.5204280300849
 30
0.0
 11
489.427407985633
 21
269.6372894583272
 31
0.0
  0
LINE
  5
2E9
330
1F
100
AcDbEntity
  8
1
  6
Continuous
 62
     7
370
     9
100
AcDbLine
 10
525.4898538261468
 20
234.9890571801864
 30
0.0
 11
524.0756402637737
 21
234.9890571801864
 31
0.0
  0
LINE
  5
2EA
330
1F
100
AcDbEntity
  8
1
  6
Continuous
 62
     7
370
     9
100
AcDbLine
 10
462.8667478138531
 20
206.9283970084066
 30
0.0
 11
513.8667478138531
 21
206.9283970084066
 31
0.0
  0
LINE
  5
2EB
330
1F
100
AcDbEntity
  8
1
  6
Continuous
 62
     7
370
     9
100
AcDbLine
 10
463.8667478138531
 20
207.9283970084066
 30
0.0
 11
512.8667478138531
 21
207.9283970084066
 31
0.0
  0
LINE
  5
2EC
330
1F
100
AcDbEntity
  8
1
  6
Continuous
 62
     7
370
     9
100
AcDbLine
 10
525.4898538261468
 20
234.9890571801863
 30
0.0
 11
489.427407985633
 21
271.0515030207004
 31
0.0
  0
LINE
  5
2ED
330
1F
100
AcDbEntity
  8
1
  6
Continuous
 62
     7
370
     9
100
AcDbLine
 10
524.0756402637737
 20
234.9890571801864
 30
0.0
 11
489.4274079856328
 21
269.6372894583272
 31
0.0
  0
LINE
  5
2EE
330
1F
100
AcDbEntity
  8
1
  6
Continuous
 62
     7
370
     9
100
AcDbLine
 10
512.3995910862741
 20
223.9736673825828
 30
0.0
 11
489.3667478138531
 21
233.5141834460333
 31
0.0
  0
ARC
  5
2EF
330
1F
100
AcDbEntity
  8
1
  6
Continuous
 62
     7
370
     9
100
AcDbCircle
 10
464.8667478138531
 20
201.9283970084066
 30
0.0
 40
2.0
100
AcDbArc
 50
179.9999999999998
 51
269.9999999999998
  0
ARC
  5
2F0
330
1F
100
AcDbEntity
  8
1
  6
Continuous
 62
     7
370
     9
100
AcDbCircle
 10
511.8667478138531
 20
201.9283970084066
 30
0.0
 40
2.0
100
AcDbArc
 50
269.9999999999998
 51
0.0
  0
ARC
  5
2F1
330
1F
100
AcDbEntity
  8
1
  6
Continuous
 62
     7
370
     9
100
AcDbCircle
 10
494.3771554539387
 20
273.17282336426
 30
0.0
 40
2.0
100
AcDbArc
 50
45.0
 51
135.0
  0
ARC
  5
2F2
330
1F
100
AcDbEntity
  8
1
  6
Continuous
 62
     7
370
     9
100
AcDbCircle
 10
518.8667478138531
 20
221.2948833560272
 30
0.0
 40
6.0
100
AcDbArc
 50
135.0
 51
179.9999999999998
  0
ARC
  5
2F3
330
1F
100
AcDbEntity
  8
1
  6
Continuous
 62
     7
370
     9
100
AcDbCircle
 10
509.766747813853
 20
225.0642267736223
 30
0.0
 40
45.90000000000001
100
AcDbArc
 50
134.9999999999999
 51
179.9999999999998
  0
ARC
  5
2F4
330
1F
100
AcDbEntity
  8
1
  6
Continuous
 62
     7
370
     9
100
AcDbCircle
 10
527.6111741697065
 20
239.9388046484922
 30
0.0
 40
2.0
100
AcDbArc
 50
314.9999999999997
 51
45.0000000000023
  0
LINE
  5
2F5
330
1F
100
AcDbEntity
  8
1
  6
Continuous
 62
     7
370
     9
100
AcDbLine
 10
560.4383783741957
 20
253.0202801004433
 30
0.0
 11
560.4383783741957
 21
257.9700275687492
 31
0.0
  0
LINE
  5
2F6
330
1F
100
AcDbEntity
  8
1
  6
Continuous
 62
     7
370
     9
100
AcDbLine
 10
560.4383783741957
 20
206.9283970084066
 30
0.0
 11
561.4383783741957
 21
207.9283970084066
 31
0.0
  0
LINE
  5
2F7
330
1F
100
AcDbEntity
  8
1
  6
Continuous
 62
     7
370
     9
100
AcDbLine
 10
610.4383783741957
 20
207.9283970084066
 30
0.0
 11
611.4383783741957
 21
206.9283970084066
 31
0.0
  0
LINE
  5
2F8
330
1F
100
AcDbEntity
  8
1
  6
Continuous
 62
     7
370
     9
100
AcDbLine
 10
611.4383783741957
 20
206.9283970084066
 30
0.0
 11
611.4383783741957
 21
201.9283970084066
 31
0.0
  0
LINE
  5
2F9
330
1F
100
AcDbEntity
  8
1
  6
Continuous
 62
     7
370
     9
100
AcDbLine
 10
562.4383783741957
 20
199.9283970084066
 30
0.0
 11
609.4383783741957
 21
199.9283970084066
 31
0.0
  0
LINE
  5
2FA
330
1F
100
AcDbEntity
  8
1
  6
Continuous
 62
     7
370
     9
100
AcDbLine
 10
560.4383783741957
 20
206.9283970084066
 30
0.0
 11
560.4383783741957
 21
201.9283970084066
 31
0.0
  0
LINE
  5
2FB
330
1F
100
AcDbEntity
  8
1
  6
Continuous
 62
     7
370
     9
100
AcDbLine
 10
561.4383783741957
 20
207.9283970084066
 30
0.0
 11
610.4383783741957
 21
207.9283970084066
 31
0.0
  0
LINE
  5
2FC
330
1F
100
AcDbEntity
  8
1
  6
Continuous
 62
     7
370
     9
100
AcDbLine
 10
560.4383783741957
 20
206.9283970084066
 30
0.0
 11
611.4383783741957
 21
206.9283970084066
 31
0.0
  0
LINE
  5
2FD
330
1F
100
AcDbEntity
  8
1
  6
Continuous
 62
     7
370
     9
100
AcDbLine
 10
561.4383783741957
 20
248.0206192122891
 30
0.0
 11
561.4383783741957
 21
207.9283970084066
 31
0.0
  0
LINE
  5
2FE
330
1F
100
AcDbEntity
  8
1
  6
Continuous
 62
     7
370
     9
100
AcDbLine
 10
610.4383783741957
 20
248.0206192122891
 30
0.0
 11
610.4383783741957
 21
207.9283970084066
 31
0.0
  0
LINE
  5
2FF
330
1F
100
AcDbEntity
  8
1
  6
Continuous
 62
     7
370
     9
100
AcDbLine
 10
611.4383783741957
 20
253.0202801004433
 30
0.0
 11
611.4383783741957
 21
257.9700275687492
 31
0.0
  0
LINE
  5
300
330
1F
100
AcDbEntity
  8
1
  6
Continuous
 62
     7
370
     9
100
AcDbLine
 10
584.9383783741957
 20
224.1943782926388
 30
0.0
 11
562.4383783741957
 21
233.5141834460334
 31
0.0
  0
LINE
  5
301
330
1F
100
AcDbEntity
  8
1
  6
Continuous
 62
     7
370
     9
100
AcDbLine
 10
586.9383783741957
 20
224.1943782926388
 30
0.0
 11
609.4383783741957
 21
233.5141834460334
 31
0.0
  0
ARC
  5
302
330
1F
100
AcDbEntity
  8
1
  6
Continuous
 62
     7
370
     9
100
AcDbCircle
 10
562.4383783741957
 20
201.9283970084066
 30
0.0
 40
2.0
100
AcDbArc
 50
179.9999999999998
 51
269.9999999999998
  0
ARC
  5
303
330
1F
100
AcDbEntity
  8
1
  6
Continuous
 62
     7
370
     9
100
AcDbCircle
 10
609.4383783741957
 20
201.9283970084066
 30
0.0
 40
2.0
100
AcDbArc
 50
269.9999999999998
 51
0.0
  0
ELLIPSE
  5
304
330
1F
100
AcDbEntity
  8
1
  6
Continuous
 62
     7
370
     9
100
AcDbEllipse
 10
585.9383783741957
 20
253.0202801004433
 30
0.0
 11
25.5
 21
0.0
 31
0.0
210
0.0
220
0.0
230
1.0
 40
0.7070588235294119
 41
-3.141592653589787
 42
0.0000000000000062
  0
ELLIPSE
  5
305
330
1F
100
AcDbEntity
  8
1
  6
Continuous
 62
     7
370
     9
100
AcDbEllipse
 10
585.9383783741957
 20
257.9700275687492
 30
0.0
 11
25.5
 21
0.0
 31
0.0
210
0.0
220
0.0
230
1.0
 40
0.7070588235294119
 41
0.0
 42
6.283185307179586
  0
ELLIPSE
  5
306
330
1F
100
AcDbEntity
  8
1
  6
Continuous
 62
     7
370
     9
100
AcDbEllipse
 10
585.9383783741957
 20
257.9700275687492
 30
0.0
 11
-20.95500000000003
 21
-2.566247367613282E-15
 31
0.0
210
0.0
220
0.0
230
1.0
 40
0.7071067811865471
 41
0.0
 42
6.283185307179586
  0
ELLIPSE
  5
307
330
1F
100
AcDbEntity
  8
1
  6
Continuous
 62
     7
370
     9
100
AcDbEllipse
 10
585.9383783741957
 20
257.9700275687492
 30
0.0
 11
-19.41393228216762
 21
2.377521002822005E-15
 31
0.0
210
0.0
220
0.0
230
1.0
 40
0.7071067811865472
 41
0.0
 42
6.283185307179586
  0
LINE
  5
308
330
1F
100
AcDbEntity
  8
1
  6
Continuous
 62
     7
370
     9
100
AcDbLine
 10
432.8667478138531
 20
253.0202801004433
 30
0.0
 11
432.8667478138531
 21
257.9700275687492
 31
0.0
  0
LINE
  5
309
330
1F
100
AcDbEntity
  8
1
  6
Continuous
 62
     7
370
     9
100
AcDbLine
 10
432.8667478138531
 20
206.9283970084066
 30
0.0
 11
431.8667478138531
 21
207.9283970084066
 31
0.0
  0
LINE
  5
30A
330
1F
100
AcDbEntity
  8
1
  6
Continuous
 62
     7
370
     9
100
AcDbLine
 10
382.8667478138531
 20
207.9283970084066
 30
0.0
 11
381.8667478138531
 21
206.9283970084066
 31
0.0
  0
LINE
  5
30B
330
1F
100
AcDbEntity
  8
1
  6
Continuous
 62
     7
370
     9
100
AcDbLine
 10
381.8667478138531
 20
206.9283970084066
 30
0.0
 11
381.8667478138531
 21
201.9283970084066
 31
0.0
  0
LINE
  5
30C
330
1F
100
AcDbEntity
  8
1
  6
Continuous
 62
     7
370
     9
100
AcDbLine
 10
430.8667478138531
 20
199.9283970084066
 30
0.0
 11
383.8667478138531
 21
199.9283970084066
 31
0.0
  0
LINE
  5
30D
330
1F
100
AcDbEntity
  8
1
  6
Continuous
 62
     7
370
     9
100
AcDbLine
 10
432.8667478138531
 20
206.9283970084066
 30
0.0
 11
432.8667478138531
 21
201.9283970084066
 31
0.0
  0
LINE
  5
30E
330
1F
100
AcDbEntity
  8
1
  6
Continuous
 62
     7
370
     9
100
AcDbLine
 10
431.8667478138531
 20
207.9283970084066
 30
0.0
 11
382.8667478138531
 21
207.9283970084066
 31
0.0
  0
LINE
  5
30F
330
1F
100
AcDbEntity
  8
1
  6
Continuous
 62
     7
370
     9
100
AcDbLine
 10
432.8667478138531
 20
206.9283970084066
 30
0.0
 11
381.8667478138531
 21
206.9283970084066
 31
0.0
  0
LINE
  5
310
330
1F
100
AcDbEntity
  8
1
  6
Continuous
 62
     7
370
     9
100
AcDbLine
 10
431.8667478138531
 20
252.3131733192568
 30
0.0
 11
431.8667478138531
 21
207.9283970084066
 31
0.0
  0
LINE
  5
311
330
1F
100
AcDbEntity
  8
1
  6
Continuous
 62
     7
370
     9
100
AcDbLine
 10
382.8667478138531
 20
252.3131733192568
 30
0.0
 11
382.8667478138531
 21
207.9283970084066
 31
0.0
  0
LINE
  5
312
330
1F
100
AcDbEntity
  8
1
  6
Continuous
 62
     7
370
     9
100
AcDbLine
 10
381.8667478138531
 20
253.0202801004433
 30
0.0
 11
381.8667478138531
 21
257.9700275687492
 31
0.0
  0
ARC
  5
313
330
1F
100
AcDbEntity
  8
1
  6
Continuous
 62
     7
370
     9
100
AcDbCircle
 10
430.8667478138531
 20
201.9283970084066
 30
0.0
 40
2.0
100
AcDbArc
 50
269.9999999999998
 51
0.0
  0
ARC
  5
314
330
1F
100
AcDbEntity
  8
1
  6
Continuous
 62
     7
370
     9
100
AcDbCircle
 10
383.8667478138531
 20
201.9283970084066
 30
0.0
 40
2.0
100
AcDbArc
 50
179.9999999999998
 51
269.9999999999998
  0
ELLIPSE
  5
315
330
1F
100
AcDbEntity
  8
1
  6
Continuous
 62
     7
370
     9
100
AcDbEllipse
 10
407.3667478138531
 20
257.9700275687492
 30
0.0
 11
-25.5
 21
3.122849337825751E-15
 31
0.0
210
0.0
220
0.0
230
1.0
 40
0.7070588235294119
 41
-3.141592653589787
 42
0.0000000000000062
  0
ELLIPSE
  5
316
330
1F
100
AcDbEntity
  8
1
  6
Continuous
 62
     7
370
     9
100
AcDbEllipse
 10
407.3667478138531
 20
252.3131733192568
 30
0.0
 11
-24.5
 21
-3.000384657911015E-15
 31
0.0
210
0.0
220
0.0
230
1.0
 40
0.707106781186548
 41
-3.141592653589787
 42
0.0000000000000062
  0
ELLIPSE
  5
317
330
1F
100
AcDbEntity
  8
1
  6
Continuous
 62
     7
370
     9
100
AcDbEllipse
 10
407.3667478138531
 20
253.0202801004433
 30
0.0
 11
-25.5
 21
3.122849337825751E-15
 31
0.0
210
0.0
220
0.0
230
1.0
 40
0.7070588235294119
 41
0.0
 42
0.2809793950803174
  0
ELLIPSE
  5
318
330
1F
100
AcDbEntity
  8
1
  6
Continuous
 62
     7
370
     9
100
AcDbEllipse
 10
407.3667478138531
 20
253.0202801004433
 30
0.0
 11
-25.5
 21
3.122849337825751E-15
 31
0.0
210
0.0
220
0.0
230
1.0
 40
0.7070588235294119
 41
-3.141592653589787
 42
0.0000000000000062
  0
ELLIPSE
  5
319
330
1F
100
AcDbEntity
  8
1
  6
Continuous
 62
     7
370
     9
100
AcDbEllipse
 10
407.3667478138531
 20
253.0202801004433
 30
0.0
 11
-25.5
 21
3.122849337825751E-15
 31
0.0
210
0.0
220
0.0
230
1.0
 40
0.7070588235294119
 41
2.860613258509476
 42
3.141592653589799
  0
LINE
  5
31A
330
1F
100
AcDbEntity
  8
1
  6
Continuous
 62
     7
370
     9
100
AcDbLine
 10
507.4586309058898
 20
357.0000275687493
 30
0.0
 11
512.4083783741956
 21
357.0000275687493
 31
0.0
  0
LINE
  5
31B
330
1F
100
AcDbEntity
  8
1
  6
Continuous
 62
     7
370
     9
100
AcDbLine
 10
502.4589700177355
 20
356.0000275687493
 30
0.0
 11
488.3667478138531
 21
356.0000275687493
 31
0.0
  0
LINE
  5
31C
330
1F
100
AcDbEntity
  8
1
  6
Continuous
 62
     7
370
     9
100
AcDbLine
 10
502.4589700177355
 20
307.0000275687491
 30
0.0
 11
488.3667478138531
 21
307.0000275687491
 31
0.0
  0
LINE
  5
31D
330
1F
100
AcDbEntity
  8
1
  6
Continuous
 62
     7
370
     9
100
AcDbLine
 10
507.4586309058899
 20
306.0000275687491
 30
0.0
 11
512.4083783741956
 21
306.0000275687491
 31
0.0
  0
ARC
  5
31E
330
1F
100
AcDbEntity
  8
1
  6
Continuous
 62
     7
370
     9
100
AcDbCircle
 10
488.3667478138531
 20
331.5000275687491
 30
0.0
 40
25.5
100
AcDbArc
 50
73.9010660489434
 51
286.0989339510572
  0
ARC
  5
31F
330
1F
100
AcDbEntity
  8
1
  6
Continuous
 62
     7
370
     9
100
AcDbCircle
 10
488.3667478138531
 20
331.5000275687491
 30
0.0
 40
24.5
100
AcDbArc
 50
90.00000000000026
 51
269.9999999999999
  0
ELLIPSE
  5
320
330
1F
100
AcDbEntity
  8
1
  6
Continuous
 62
     7
370
     9
100
AcDbEllipse
 10
507.4586309058899
 20
331.5000275687491
 30
0.0
 11
-9.762850182263720E-15
 21
-25.5
 31
0.0
210
0.0
220
0.0
230
1.0
 40
0.7070588235294119
 41
-3.141592653589788
 42
0.0000000000000062
  0
ELLIPSE
  5
321
330
1F
100
AcDbEntity
  8
1
  6
Continuous
 62
     7
370
     9
100
AcDbEllipse
 10
512.4083783741956
 20
331.5000275687491
 30
0.0
 11
-8.022765708601432E-15
 21
20.95500000000003
 31
0.0
210
0.0
220
0.0
230
1.0
 40
0.7071067811865471
 41
0.0
 42
6.283185307179586
  0
ELLIPSE
  5
322
330
1F
100
AcDbEntity
  8
1
  6
Continuous
 62
     7
370
     9
100
AcDbEllipse
 10
512.4083783741956
 20
331.5000275687491
 30
0.0
 11
3.136407296685755E-14
 21
19.41393228216762
 31
0.0
210
0.0
220
0.0
230
1.0
 40
0.7071067811865472
 41
0.0
 42
6.283185307179586
  0
ELLIPSE
  5
323
330
1F
100
AcDbEntity
  8
1
  6
Continuous
 62
     7
370
     9
100
AcDbEllipse
 10
512.4083783741956
 20
331.5000275687491
 30
0.0
 11
-9.762850182263720E-15
 21
-25.5
 31
0.0
210
0.0
220
0.0
230
1.0
 40
0.7070588235294119
 41
0.0
 42
6.283185307179586
  0
LINE
  5
324
330
1F
100
AcDbEntity
  8
1
  6
Continuous
 62
     7
370
     9
100
AcDbLine
 10
893.6523880419509
 20
208.9283970084066
 30
0.0
 11
895.1523880419509
 21
207.4283970084066
 31
0.0
  0
LINE
  5
325
330
1F
100
AcDbEntity
  8
1
  6
Continuous
 62
     7
370
     9
100
AcDbLine
 10
866.0791647372475
 20
276.3496000595566
 30
0.0
 11
866.0791647372475
 21
278.4709204031163
 31
0.0
  0
LINE
  5
326
330
1F
100
AcDbEntity
  8
1
  6
Continuous
 62
     7
370
     9
100
AcDbLine
 10
838.6523880419509
 20
199.9283970084066
 30
0.0
 11
893.1523880419509
 21
199.9283970084066
 31
0.0
  0
LINE
  5
327
330
1F
100
AcDbEntity
  8
1
  6
Continuous
 62
     7
370
     9
100
AcDbLine
 10
836.6523880419509
 20
207.4283970084066
 30
0.0
 11
838.1523880419508
 21
208.9283970084064
 31
0.0
  0
LINE
  5
328
330
1F
100
AcDbEntity
  8
1
  6
Continuous
 62
     7
370
     9
100
AcDbLine
 10
836.6523880419509
 20
207.4283970084066
 30
0.0
 11
836.6523880419509
 21
201.9283970084066
 31
0.0
  0
LINE
  5
329
330
1F
100
AcDbEntity
  8
1
  6
Continuous
 62
     7
370
     9
100
AcDbLine
 10
838.1523880419509
 20
226.8422967646218
 30
0.0
 11
838.1523880419509
 21
208.9283970084066
 31
0.0
  0
LINE
  5
32A
330
1F
100
AcDbEntity
  8
1
  6
Continuous
 62
     7
370
     9
100
AcDbLine
 10
895.1523880419509
 20
207.4283970084066
 30
0.0
 11
895.1523880419509
 21
201.9283970084066
 31
0.0
  0
LINE
  5
32B
330
1F
100
AcDbEntity
  8
1
  6
Continuous
 62
     7
370
     9
100
AcDbLine
 10
893.6523880419509
 20
222.5344757159415
 30
0.0
 11
893.6523880419509
 21
208.9283970084066
 31
0.0
  0
LINE
  5
32C
330
1F
100
AcDbEntity
  8
1
  6
Continuous
 62
     7
370
     9
100
AcDbLine
 10
895.702640573645
 20
227.4842231842474
 30
0.0
 11
905.3235910931008
 21
237.1051737037032
 31
0.0
  0
LINE
  5
32D
330
1F
100
AcDbEntity
  8
1
  6
Continuous
 62
     7
370
     9
100
AcDbLine
 10
853.4121239162256
 20
263.6825592385346
 30
0.0
 11
866.0791647372475
 21
276.3496000595566
 31
0.0
  0
LINE
  5
32E
330
1F
100
AcDbEntity
  8
1
  6
Continuous
 62
     7
370
     9
100
AcDbLine
 10
907.4449114366605
 20
237.1051737037032
 30
0.0
 11
905.323591093101
 21
237.1051737037032
 31
0.0
  0
LINE
  5
32F
330
1F
100
AcDbEntity
  8
1
  6
Continuous
 62
     7
370
     9
100
AcDbLine
 10
907.4449114366605
 20
237.1051737037032
 30
0.0
 11
911.3339987331865
 21
240.9942610002292
 31
0.0
  0
LINE
  5
330
330
1F
100
AcDbEntity
  8
1
  6
Continuous
 62
     7
370
     9
100
AcDbLine
 10
866.0791647372475
 20
278.4709204031162
 30
0.0
 11
869.9682520337735
 21
282.3600076996422
 31
0.0
  0
LINE
  5
331
330
1F
100
AcDbEntity
  8
1
  6
Continuous
 62
     7
370
     9
100
AcDbLine
 10
911.3339987331865
 20
243.8226881249754
 30
0.0
 11
872.7966791585196
 21
282.3600076996423
 31
0.0
  0
LINE
  5
332
330
1F
100
AcDbEntity
  8
1
  6
Continuous
 62
     7
370
     9
100
AcDbLine
 10
836.6523880419509
 20
207.4283970084066
 30
0.0
 11
895.1523880419509
 21
207.4283970084066
 31
0.0
  0
LINE
  5
333
330
1F
100
AcDbEntity
  8
1
  6
Continuous
 62
     7
370
     9
100
AcDbLine
 10
838.1523880419509
 20
208.9283970084066
 30
0.0
 11
893.6523880419509
 21
208.9283970084066
 31
0.0
  0
LINE
  5
334
330
1F
100
AcDbEntity
  8
1
  6
Continuous
 62
     7
370
     9
100
AcDbLine
 10
907.4449114366605
 20
237.1051737037032
 30
0.0
 11
866.0791647372475
 21
278.4709204031162
 31
0.0
  0
LINE
  5
335
330
1F
100
AcDbEntity
  8
1
  6
Continuous
 62
     7
370
     9
100
AcDbLine
 10
905.3235910931008
 20
237.1051737037032
 30
0.0
 11
866.0791647372475
 21
276.3496000595566
 31
0.0
  0
LINE
  5
336
330
1F
100
AcDbEntity
  8
1
  6
Continuous
 62
     7
370
     9
100
AcDbLine
 10
892.3374722493493
 20
225.9786266072274
 30
0.0
 11
867.9023880419509
 21
236.0999698836603
 31
0.0
  0
ARC
  5
337
330
1F
100
AcDbEntity
  8
1
  6
Continuous
 62
     7
370
     9
100
AcDbCircle
 10
893.1523880419509
 20
201.9283970084066
 30
0.0
 40
2.0
100
AcDbArc
 50
269.9999999999998
 51
0.0
  0
ARC
  5
338
330
1F
100
AcDbEntity
  8
1
  6
Continuous
 62
     7
370
     9
100
AcDbCircle
 10
838.6523880419509
 20
201.9283970084066
 30
0.0
 40
2.0
100
AcDbArc
 50
179.9999999999998
 51
269.9999999999998
  0
ARC
  5
339
330
1F
100
AcDbEntity
  8
1
  6
Continuous
 62
     7
370
     9
100
AcDbCircle
 10
890.2523880419509
 20
226.8422967646218
 30
0.0
 40
52.09999999999999
100
AcDbArc
 50
134.9999986258335
 51
179.9999999999998
  0
ARC
  5
33A
330
1F
100
AcDbEntity
  8
1
  6
Continuous
 62
     7
370
     9
100
AcDbCircle
 10
909.9197851708134
 20
242.4084745626023
 30
0.0
 40
2.0
100
AcDbArc
 50
314.9999999999997
 51
45.0
  0
ARC
  5
33B
330
1F
100
AcDbEntity
  8
1
  6
Continuous
 62
     7
370
     9
100
AcDbCircle
 10
871.3824655961466
 20
280.9457941372692
 30
0.0
 40
2.0
100
AcDbArc
 50
45.0
 51
135.0
  0
ARC
  5
33C
330
1F
100
AcDbEntity
  8
1
  6
Continuous
 62
     7
370
     9
100
AcDbCircle
 10
900.6523880419509
 20
222.5344757159415
 30
0.0
 40
7.0
100
AcDbArc
 50
135.0
 51
179.9999999999998
  0
LINE
  5
33D
330
1F
100
AcDbEntity
  8
1
  6
Continuous
 62
     7
370
     9
100
AcDbLine
 10
942.7503389458532
 20
207.4283970084066
 30
0.0
 11
1001.250338945853
 21
207.4283970084066
 31
0.0
  0
LINE
  5
33E
330
1F
100
AcDbEntity
  8
1
  6
Continuous
 62
     7
370
     9
100
AcDbLine
 10
942.7503389458532
 20
207.4283970084066
 30
0.0
 11
944.2503389458532
 21
208.9283970084066
 31
0.0
  0
LINE
  5
33F
330
1F
100
AcDbEntity
  8
1
  6
Continuous
 62
     7
370
     9
100
AcDbLine
 10
999.7503389458532
 20
208.9283970084066
 30
0.0
 11
1001.250338945853
 21
207.4283970084066
 31
0.0
  0
LINE
  5
340
330
1F
100
AcDbEntity
  8
1
  6
Continuous
 62
     7
370
     9
100
AcDbLine
 10
944.7503389458532
 20
199.9283970084066
 30
0.0
 11
999.2503389458532
 21
199.9283970084066
 31
0.0
  0
LINE
  5
341
330
1F
100
AcDbEntity
  8
1
  6
Continuous
 62
     7
370
     9
100
AcDbLine
 10
1001.250338945853
 20
207.4283970084066
 30
0.0
 11
1001.250338945853
 21
201.9283970084066
 31
0.0
  0
LINE
  5
342
330
1F
100
AcDbEntity
  8
1
  6
Continuous
 62
     7
370
     9
100
AcDbLine
 10
944.2503389458532
 20
208.9283970084066
 30
0.0
 11
999.7503389458532
 21
208.9283970084066
 31
0.0
  0
LINE
  5
343
330
1F
100
AcDbEntity
  8
1
  6
Continuous
 62
     7
370
     9
100
AcDbLine
 10
942.7503389458532
 20
207.4283970084066
 30
0.0
 11
942.7503389458532
 21
201.9283970084066
 31
0.0
  0
LINE
  5
344
330
1F
100
AcDbEntity
  8
1
  6
Continuous
 62
     7
370
     9
100
AcDbLine
 10
999.7503389458532
 20
251.2506069723123
 30
0.0
 11
999.7503389458532
 21
208.9283970084066
 31
0.0
  0
LINE
  5
345
330
1F
100
AcDbEntity
  8
1
  6
Continuous
 62
     7
370
     9
100
AcDbLine
 10
944.2503389458532
 20
251.2506069723124
 30
0.0
 11
944.2503389458532
 21
208.9283970084066
 31
0.0
  0
LINE
  5
346
330
1F
100
AcDbEntity
  8
1
  6
Continuous
 62
     7
370
     9
100
AcDbLine
 10
1001.250338945853
 20
263.0913479123088
 30
0.0
 11
1001.250338945853
 21
257.7880470534097
 31
0.0
  0
LINE
  5
347
330
1F
100
AcDbEntity
  8
1
  6
Continuous
 62
     7
370
     9
100
AcDbLine
 10
942.7503389458532
 20
263.0913479123088
 30
0.0
 11
942.7503389458532
 21
257.7880470534097
 31
0.0
  0
LINE
  5
348
330
1F
100
AcDbEntity
  8
1
  6
Continuous
 62
     7
370
     9
100
AcDbLine
 10
970.0003389458532
 20
226.2623977772994
 30
0.0
 11
946.2503389458532
 21
236.0999698836603
 31
0.0
  0
LINE
  5
349
330
1F
100
AcDbEntity
  8
1
  6
Continuous
 62
     7
370
     9
100
AcDbLine
 10
974.0003389458532
 20
226.2623977772995
 30
0.0
 11
997.7503389458532
 21
236.0999698836603
 31
0.0
  0
ARC
  5
34A
330
1F
100
AcDbEntity
  8
1
  6
Continuous
 62
     7
370
     9
100
AcDbCircle
 10
999.2503389458532
 20
201.9283970084066
 30
0.0
 40
2.0
100
AcDbArc
 50
269.9999999999998
 51
0.0
  0
ARC
  5
34B
330
1F
100
AcDbEntity
  8
1
  6
Continuous
 62
     7
370
     9
100
AcDbCircle
 10
944.7503389458532
 20
201.9283970084066
 30
0.0
 40
2.0
100
AcDbArc
 50
179.9999999999998
 51
269.9999999999998
  0
ELLIPSE
  5
34C
330
1F
100
AcDbEntity
  8
1
  6
Continuous
 62
     7
370
     9
100
AcDbEllipse
 10
972.0003389458532
 20
263.0913479123088
 30
0.0
 11
29.25
 21
0.0
 31
0.0
210
0.0
220
0.0
230
1.0
 40
0.7071794871794873
 41
0.0
 42
6.283185307179586
  0
ELLIPSE
  5
34D
330
1F
100
AcDbEntity
  8
1
  6
Continuous
 62
     7
370
     9
100
AcDbEllipse
 10
972.0003389458532
 20
257.7880470534097
 30
0.0
 11
29.25
 21
0.0
 31
0.0
210
0.0
220
0.0
230
1.0
 40
0.707008547008547
 41
-3.141592653589787
 42
0.0000000000000062
  0
ELLIPSE
  5
34E
330
1F
100
AcDbEntity
  8
1
  6
Continuous
 62
     7
370
     9
100
AcDbEllipse
 10
972.0003389458532
 20
263.0913479123088
 30
0.0
 11
-23.9015
 21
2.927089546982046E-15
 31
0.0
210
0.0
220
0.0
230
1.0
 40
0.7071067811865467
 41
0.0
 42
6.283185307179586
  0
ELLIPSE
  5
34F
330
1F
100
AcDbEntity
  8
1
  6
Continuous
 62
     7
370
     9
100
AcDbEllipse
 10
972.0003389458532
 20
263.0913479123088
 30
0.0
 11
-22.4225
 21
2.745964285388152E-15
 31
0.0
210
0.0
220
0.0
230
1.0
 40
0.7071067811865464
 41
0.0
 42
6.283185307179586
  0
LINE
  5
350
330
1F
100
AcDbEntity
  8
1
  6
Continuous
 62
     7
370
     9
100
AcDbLine
 10
806.6523880419509
 20
263.0913479123088
 30
0.0
 11
806.6523880419509
 21
257.7880470534097
 31
0.0
  0
LINE
  5
351
330
1F
100
AcDbEntity
  8
1
  6
Continuous
 62
     7
370
     9
100
AcDbLine
 10
748.1523880419509
 20
263.0913479123088
 30
0.0
 11
748.1523880419509
 21
257.7880470534097
 31
0.0
  0
LINE
  5
352
330
1F
100
AcDbEntity
  8
1
  6
Continuous
 62
     7
370
     9
100
AcDbLine
 10
805.1523880419509
 20
256.72738688163
 30
0.0
 11
805.1523880419509
 21
208.9283970084066
 31
0.0
  0
LINE
  5
353
330
1F
100
AcDbEntity
  8
1
  6
Continuous
 62
     7
370
     9
100
AcDbLine
 10
749.6523880419509
 20
256.72738688163
 30
0.0
 11
749.6523880419509
 21
208.9283970084066
 31
0.0
  0
LINE
  5
354
330
1F
100
AcDbEntity
  8
1
  6
Continuous
 62
     7
370
     9
100
AcDbLine
 10
806.6523880419509
 20
207.4283970084066
 30
0.0
 11
806.6523880419509
 21
201.9283970084066
 31
0.0
  0
LINE
  5
355
330
1F
100
AcDbEntity
  8
1
  6
Continuous
 62
     7
370
     9
100
AcDbLine
 10
805.1523880419509
 20
208.9283970084066
 30
0.0
 11
749.6523880419509
 21
208.9283970084066
 31
0.0
  0
LINE
  5
356
330
1F
100
AcDbEntity
  8
1
  6
Continuous
 62
     7
370
     9
100
AcDbLine
 10
748.1523880419509
 20
207.4283970084066
 30
0.0
 11
748.1523880419509
 21
201.9283970084066
 31
0.0
  0
LINE
  5
357
330
1F
100
AcDbEntity
  8
1
  6
Continuous
 62
     7
370
     9
100
AcDbLine
 10
804.6523880419509
 20
199.9283970084066
 30
0.0
 11
750.1523880419509
 21
199.9283970084066
 31
0.0
  0
LINE
  5
358
330
1F
100
AcDbEntity
  8
1
  6
Continuous
 62
     7
370
     9
100
AcDbLine
 10
749.6523880419509
 20
208.9283970084066
 30
0.0
 11
748.1523880419509
 21
207.4283970084066
 31
0.0
  0
LINE
  5
359
330
1F
100
AcDbEntity
  8
1
  6
Continuous
 62
     7
370
     9
100
AcDbLine
 10
806.6523880419509
 20
207.4283970084066
 30
0.0
 11
805.1523880419509
 21
208.9283970084066
 31
0.0
  0
LINE
  5
35A
330
1F
100
AcDbEntity
  8
1
  6
Continuous
 62
     7
370
     9
100
AcDbLine
 10
806.6523880419509
 20
207.4283970084066
 30
0.0
 11
748.1523880419509
 21
207.4283970084066
 31
0.0
  0
ARC
  5
35B
330
1F
100
AcDbEntity
  8
1
  6
Continuous
 62
     7
370
     9
100
AcDbCircle
 10
804.6523880419509
 20
201.9283970084066
 30
0.0
 40
2.0
100
AcDbArc
 50
269.9999999999998
 51
0.0
  0
ARC
  5
35C
330
1F
100
AcDbEntity
  8
1
  6
Continuous
 62
     7
370
     9
100
AcDbCircle
 10
750.1523880419509
 20
201.9283970084066
 30
0.0
 40
2.0
100
AcDbArc
 50
179.9999999999998
 51
269.9999999999998
  0
ELLIPSE
  5
35D
330
1F
100
AcDbEntity
  8
1
  6
Continuous
 62
     7
370
     9
100
AcDbEllipse
 10
777.4023880419509
 20
257.7880470534097
 30
0.0
 11
-29.25
 21
3.582091887506008E-15
 31
0.0
210
0.0
220
0.0
230
1.0
 40
0.707008547008547
 41
0.0
 42
0.3216409596574251
  0
ELLIPSE
  5
35E
330
1F
100
AcDbEntity
  8
1
  6
Continuous
 62
     7
370
     9
100
AcDbEllipse
 10
777.4023880419509
 20
263.0913479123088
 30
0.0
 11
-29.25
 21
3.582091887506008E-15
 31
0.0
210
0.0
220
0.0
230
1.0
 40
0.7071794871794873
 41
-3.141592653589787
 42
0.0000000000000062
  0
ELLIPSE
  5
35F
330
1F
100
AcDbEntity
  8
1
  6
Continuous
 62
     7
370
     9
100
AcDbEllipse
 10
777.4023880419509
 20
256.72738688163
 30
0.0
 11
-27.75
 21
-1.572187044097314E-14
 31
0.0
210
0.0
220
0.0
230
1.0
 40
0.7071067811865467
 41
-3.141592653589787
 42
0.0000000000000062
  0
ELLIPSE
  5
360
330
1F
100
AcDbEntity
  8
1
  6
Continuous
 62
     7
370
     9
100
AcDbEllipse
 10
777.4023880419509
 20
257.7880470534097
 30
0.0
 11
-29.25
 21
3.582091887506008E-15
 31
0.0
210
0.0
220
0.0
230
1.0
 40
0.707008547008547
 41
-3.141592653589787
 42
0.0000000000000062
  0
ELLIPSE
  5
361
330
1F
100
AcDbEntity
  8
1
  6
Continuous
 62
     7
370
     9
100
AcDbEllipse
 10
777.4023880419509
 20
257.7880470534097
 30
0.0
 11
-29.25
 21
3.582091887506008E-15
 31
0.0
210
0.0
220
0.0
230
1.0
 40
0.707008547008547
 41
2.819951693932369
 42
3.141592653589799
  0
LINE
  5
362
330
1F
100
AcDbEntity
  8
1
  6
Continuous
 62
     7
370
     9
100
AcDbLine
 10
892.0653389458531
 20
372.1300971079719
 30
0.0
 11
886.762038086954
 21
372.1300971079719
 31
0.0
  0
LINE
  5
363
330
1F
100
AcDbEntity
  8
1
  6
Continuous
 62
     7
370
     9
100
AcDbLine
 10
892.0653389458531
 20
313.6300971079717
 30
0.0
 11
886.762038086954
 21
313.6300971079717
 31
0.0
  0
LINE
  5
364
330
1F
100
AcDbEntity
  8
1
  6
Continuous
 62
     7
370
     9
100
AcDbLine
 10
880.2245980058567
 20
370.6300971079717
 30
0.0
 11
865.9023880419509
 21
370.6300971079717
 31
0.0
  0
LINE
  5
365
330
1F
100
AcDbEntity
  8
1
  6
Continuous
 62
     7
370
     9
100
AcDbLine
 10
880.2245980058567
 20
315.1300971079717
 30
0.0
 11
865.9023880419509
 21
315.1300971079717
 31
0.0
  0
ARC
  5
366
330
1F
100
AcDbEntity
  8
1
  6
Continuous
 62
     7
370
     9
100
AcDbCircle
 10
865.9023880419509
 20
342.8800971079717
 30
0.0
 40
29.25
100
AcDbArc
 50
71.57133039617592
 51
288.4286696038242
  0
ARC
  5
367
330
1F
100
AcDbEntity
  8
1
  6
Continuous
 62
     7
370
     9
100
AcDbCircle
 10
865.9023880419509
 20
342.8800971079717
 30
0.0
 40
27.75
100
AcDbArc
 50
89.99999999999991
 51
270.0000000000001
  0
ELLIPSE
  5
368
330
1F
100
AcDbEntity
  8
1
  6
Continuous
 62
     7
370
     9
100
AcDbEllipse
 10
892.0653389458531
 20
342.8800971079717
 30
0.0
 11
-8.584608165168953E-15
 21
22.4225
 31
0.0
210
0.0
220
0.0
230
1.0
 40
0.7071067811865464
 41
0.0
 42
6.283185307179586
  0
ELLIPSE
  5
369
330
1F
100
AcDbEntity
  8
1
  6
Continuous
 62
     7
370
     9
100
AcDbEllipse
 10
892.0653389458531
 20
342.8800971079717
 30
0.0
 11
-9.150853475740248E-15
 21
23.9015
 31
0.0
210
0.0
220
0.0
230
1.0
 40
0.7071067811865467
 41
0.0
 42
6.283185307179586
  0
ELLIPSE
  5
36A
330
1F
100
AcDbEntity
  8
1
  6
Continuous
 62
     7
370
     9
100
AcDbEllipse
 10
886.762038086954
 20
342.8800971079717
 30
0.0
 11
-4.703758750304162E-15
 21
-29.25
 31
0.0
210
0.0
220
0.0
230
1.0
 40
0.707008547008547
 41
-3.141592653589786
 42
0.0000000000000062
  0
ELLIPSE
  5
36B
330
1F
100
AcDbEntity
  8
1
  6
Continuous
 62
     7
370
     9
100
AcDbEllipse
 10
892.0653389458531
 20
342.8800971079717
 30
0.0
 11
-4.703758750304162E-15
 21
-29.25
 31
0.0
210
0.0
220
0.0
230
1.0
 40
0.7071794871794873
 41
0.0
 42
6.283185307179586
  0
LINE
  5
36C
330
1F
100
AcDbEntity
  8
1
  6
Continuous
 62
     7
370
     9
100
AcDbLine
 10
144.6843317130546
 20
467.4125137067535
 30
0.0
 11
211.6843317130546
 21
467.4125137067533
 31
0.0
  0
LINE
  5
36D
330
1F
100
AcDbEntity
  8
1
  6
Continuous
 62
     7
370
     9
100
AcDbLine
 10
213.6843317130546
 20
475.9125137067533
 30
0.0
 11
213.6843317130546
 21
469.4125137067532
 31
0.0
  0
LINE
  5
36E
330
1F
100
AcDbEntity
  8
1
  6
Continuous
 62
     7
370
     9
100
AcDbLine
 10
142.6843317130546
 20
475.9125137067535
 30
0.0
 11
142.6843317130546
 21
469.4125137067535
 31
0.0
  0
LINE
  5
36F
330
1F
100
AcDbEntity
  8
1
  6
Continuous
 62
     7
370
     9
100
AcDbLine
 10
212.1343317130548
 20
477.462513706753
 30
0.0
 11
213.6843317130546
 21
475.9125137067532
 31
0.0
  0
LINE
  5
370
330
1F
100
AcDbEntity
  8
1
  6
Continuous
 62
     7
370
     9
100
AcDbLine
 10
144.2343317130548
 20
477.4625137067535
 30
0.0
 11
142.6843317130546
 21
475.9125137067534
 31
0.0
  0
LINE
  5
371
330
1F
100
AcDbEntity
  8
1
  6
Continuous
 62
     7
370
     9
100
AcDbLine
 10
144.2343317130548
 20
496.8825546838266
 30
0.0
 11
144.2343317130548
 21
477.4625137067536
 31
0.0
  0
LINE
  5
372
330
1F
100
AcDbEntity
  8
1
  6
Continuous
 62
     7
370
     9
100
AcDbLine
 10
212.1343317130547
 20
492.036254765202
 30
0.0
 11
212.1343317130547
 21
477.462513706753
 31
0.0
  0
LINE
  5
373
330
1F
100
AcDbEntity
  8
1
  6
Continuous
 62
     7
370
     9
100
AcDbLine
 10
231.5708936926392
 20
515.4229213468388
 30
0.0
 11
184.1947393531407
 21
562.7990756863377
 31
0.0
  0
LINE
  5
374
330
1F
100
AcDbEntity
  8
1
  6
Continuous
 62
     7
370
     9
100
AcDbLine
 10
176.770118150682
 20
558.2028816086251
 30
0.0
 11
181.3663122283946
 21
562.7990756863377
 31
0.0
  0
LINE
  5
375
330
1F
100
AcDbEntity
  8
1
  6
Continuous
 62
     7
370
     9
100
AcDbLine
 10
226.9746996149266
 20
507.9983001443801
 30
0.0
 11
231.5708936926393
 21
512.5944942220926
 31
0.0
  0
LINE
  5
376
330
1F
100
AcDbEntity
  8
1
  6
Continuous
 62
     7
370
     9
100
AcDbLine
 10
224.7826685932481
 20
507.9983001443808
 30
0.0
 11
226.9746996149266
 21
507.9983001443808
 31
0.0
  0
LINE
  5
377
330
1F
100
AcDbEntity
  8
1
  6
Continuous
 62
     7
370
     9
100
AcDbLine
 10
176.770118150682
 20
556.0108505869471
 30
0.0
 11
176.770118150682
 21
558.2028816086251
 31
0.0
  0
LINE
  5
378
330
1F
100
AcDbEntity
  8
1
  6
Continuous
 62
     7
370
     9
100
AcDbLine
 10
163.0380763608782
 20
542.2788087971434
 30
0.0
 11
176.7701181506819
 21
556.0108505869471
 31
0.0
  0
LINE
  5
379
330
1F
100
AcDbEntity
  8
1
  6
Continuous
 62
     7
370
     9
100
AcDbLine
 10
214.4774774635624
 20
497.6931090146944
 30
0.0
 11
224.7826685932482
 21
507.9983001443801
 31
0.0
  0
LINE
  5
37A
330
1F
100
AcDbEntity
  8
1
  6
Continuous
 62
     7
370
     9
100
AcDbLine
 10
142.6843317130546
 20
475.9125137067535
 30
0.0
 11
213.6843317130546
 21
475.9125137067532
 31
0.0
  0
LINE
  5
37B
330
1F
100
AcDbEntity
  8
1
  6
Continuous
 62
     7
370
     9
100
AcDbLine
 10
144.2343317130548
 20
477.4625137067534
 30
0.0
 11
212.1343317130547
 21
477.4625137067532
 31
0.0
  0
LINE
  5
37C
330
1F
100
AcDbEntity
  8
1
  6
Continuous
 62
     7
370
     9
100
AcDbLine
 10
226.9746996149274
 20
507.9983001443809
 30
0.0
 11
176.7701181506827
 21
558.202881608626
 31
0.0
  0
LINE
  5
37D
330
1F
100
AcDbEntity
  8
1
  6
Continuous
 62
     7
370
     9
100
AcDbLine
 10
224.7826685932489
 20
507.9983001443809
 30
0.0
 11
176.7701181506825
 21
556.0108505869476
 31
0.0
  0
LINE
  5
37E
330
1F
100
AcDbEntity
  8
1
  6
Continuous
 62
     7
370
     9
100
AcDbLine
 10
210.8955363879419
 20
495.8630890888529
 30
0.0
 11
180.1843317130548
 21
508.5840865820072
 31
0.0
  0
ARC
  5
37F
330
1F
100
AcDbEntity
  8
1
  6
Continuous
 62
     7
370
     9
100
AcDbCircle
 10
144.6843317130546
 20
469.4125137067534
 30
0.0
 40
2.0
100
AcDbArc
 50
179.9999999999998
 51
269.9999999999998
  0
ARC
  5
380
330
1F
100
AcDbEntity
  8
1
  6
Continuous
 62
     7
370
     9
100
AcDbCircle
 10
211.6843317130546
 20
469.4125137067532
 30
0.0
 40
2.0
100
AcDbArc
 50
269.9999999999998
 51
0.0
  0
ARC
  5
381
330
1F
100
AcDbEntity
  8
1
  6
Continuous
 62
     7
370
     9
100
AcDbCircle
 10
208.4343317130546
 20
496.882553444967
 30
0.0
 40
64.19999999999985
100
AcDbArc
 50
135.0
 51
179.9999999999999
  0
ARC
  5
382
330
1F
100
AcDbEntity
  8
1
  6
Continuous
 62
     7
370
     9
100
AcDbCircle
 10
220.1343317130547
 20
492.036254765202
 30
0.0
 40
8.0
100
AcDbArc
 50
134.9999999999994
 51
179.9999999999998
  0
ARC
  5
383
330
1F
100
AcDbEntity
  8
1
  6
Continuous
 62
     7
370
     9
100
AcDbCircle
 10
230.1566801302662
 20
514.0087077844657
 30
0.0
 40
2.0
100
AcDbArc
 50
314.9999999999997
 51
45.0000000000023
  0
ARC
  5
384
330
1F
100
AcDbEntity
  8
1
  6
Continuous
 62
     7
370
     9
100
AcDbCircle
 10
182.7805257907677
 20
561.3848621239646
 30
0.0
 40
2.0
100
AcDbArc
 50
45.0
 51
135.0
  0
LINE
  5
385
330
1F
100
AcDbEntity
  8
1
  6
Continuous
 62
     7
370
     9
100
AcDbLine
 10
67.18433171305446
 20
475.9125137067532
 30
0.0
 11
31.68433171305446
 21
475.9125137067532
 31
0.0
  0
LINE
  5
386
330
1F
100
AcDbEntity
  8
1
  6
Continuous
 62
     7
370
     9
100
AcDbLine
 10
67.18433171305446
 20
477.4625137067533
 30
0.0
 11
33.23433171305442
 21
477.4625137067533
 31
0.0
  0
LINE
  5
387
330
1F
100
AcDbEntity
  8
1
  6
Continuous
 62
     7
370
     9
100
AcDbLine
 10
101.1343317130545
 20
477.4625137067533
 30
0.0
 11
67.18433171305446
 21
477.4625137067533
 31
0.0
  0
LINE
  5
388
330
1F
100
AcDbEntity
  8
1
  6
Continuous
 62
     7
370
     9
100
AcDbLine
 10
33.23433171305442
 20
532.0045742924995
 30
0.0
 11
33.23433171305442
 21
477.4625137067532
 31
0.0
  0
LINE
  5
389
330
1F
100
AcDbEntity
  8
1
  6
Continuous
 62
     7
370
     9
100
AcDbLine
 10
101.1343317130545
 20
532.0045741792361
 30
0.0
 11
101.1343317130545
 21
477.4625137067533
 31
0.0
  0
LINE
  5
38A
330
1F
100
AcDbEntity
  8
1
  6
Continuous
 62
     7
370
     9
100
AcDbLine
 10
31.68433171305446
 20
475.9125137067532
 30
0.0
 11
31.68433171305446
 21
469.4125137067532
 31
0.0
  0
LINE
  5
38B
330
1F
100
AcDbEntity
  8
1
  6
Continuous
 62
     7
370
     9
100
AcDbLine
 10
102.6843317130545
 20
475.9125137067532
 30
0.0
 11
102.6843317130545
 21
469.4125137067532
 31
0.0
  0
LINE
  5
38C
330
1F
100
AcDbEntity
  8
1
  6
Continuous
 62
     7
370
     9
100
AcDbLine
 10
102.6843317130545
 20
475.9125137067532
 30
0.0
 11
101.1343317130545
 21
477.4625137067533
 31
0.0
  0
LINE
  5
38D
330
1F
100
AcDbEntity
  8
1
  6
Continuous
 62
     7
370
     9
100
AcDbLine
 10
33.23433171305442
 20
477.4625137067532
 30
0.0
 11
31.68433171305446
 21
475.9125137067532
 31
0.0
  0
LINE
  5
38E
330
1F
100
AcDbEntity
  8
1
  6
Continuous
 62
     7
370
     9
100
AcDbLine
 10
31.68433171305446
 20
539.1109985165884
 30
0.0
 11
31.68433171305446
 21
533.1005908765035
 31
0.0
  0
LINE
  5
38F
330
1F
100
AcDbEntity
  8
1
  6
Continuous
 62
     7
370
     9
100
AcDbLine
 10
100.6843317130545
 20
467.4125137067532
 30
0.0
 11
33.68433171305446
 21
467.4125137067532
 31
0.0
  0
LINE
  5
390
330
1F
100
AcDbEntity
  8
1
  6
Continuous
 62
     7
370
     9
100
AcDbLine
 10
102.6843317130545
 20
475.9125137067532
 30
0.0
 11
67.18433171305446
 21
475.9125137067532
 31
0.0
  0
LINE
  5
391
330
1F
100
AcDbEntity
  8
1
  6
Continuous
 62
     7
370
     9
100
AcDbLine
 10
102.6843317130545
 20
539.1109985165884
 30
0.0
 11
102.6843317130545
 21
533.1005908765035
 31
0.0
  0
ARC
  5
392
330
1F
100
AcDbEntity
  8
1
  6
Continuous
 62
     7
370
     9
100
AcDbCircle
 10
33.68433171305446
 20
469.4125137067532
 30
0.0
 40
2.0
100
AcDbArc
 50
179.9999999999998
 51
269.9999999999998
  0
ARC
  5
393
330
1F
100
AcDbEntity
  8
1
  6
Continuous
 62
     7
370
     9
100
AcDbCircle
 10
100.6843317130545
 20
469.4125137067532
 30
0.0
 40
2.0
100
AcDbArc
 50
269.9999999999998
 51
0.0
  0
ELLIPSE
  5
394
330
1F
100
AcDbEntity
  8
1
  6
Continuous
 62
     7
370
     9
100
AcDbEllipse
 10
67.18433171305446
 20
533.1005908765035
 30
0.0
 11
-35.5
 21
4.347496136973104E-15
 31
0.0
210
0.0
220
0.0
230
1.0
 40
0.7070422535211266
 41
0.0
 42
0.2965921453499686
  0
ELLIPSE
  5
395
330
1F
100
AcDbEntity
  8
1
  6
Continuous
 62
     7
370
     9
100
AcDbEllipse
 10
67.18433171305446
 20
539.1109985165884
 30
0.0
 11
-35.5
 21
4.347496136973104E-15
 31
0.0
210
0.0
220
0.0
230
1.0
 40
0.7070422535211266
 41
-3.141592653589787
 42
0.0000000000000062
  0
ELLIPSE
  5
396
330
1F
100
AcDbEntity
  8
1
  6
Continuous
 62
     7
370
     9
100
AcDbEllipse
 10
67.18433171305446
 20
532.0045753656636
 30
0.0
 11
-33.94999999999999
 21
-1.923450455751488E-14
 31
0.0
210
0.0
220
0.0
230
1.0
 40
0.7071067811865528
 41
-3.141592653589788
 42
0.0000000000000062
  0
ELLIPSE
  5
397
330
1F
100
AcDbEntity
  8
1
  6
Continuous
 62
     7
370
     9
100
AcDbEllipse
 10
67.18433171305446
 20
533.1005908765035
 30
0.0
 11
-35.5
 21
4.347496136973104E-15
 31
0.0
210
0.0
220
0.0
230
1.0
 40
0.7070422535211266
 41
-3.141592653589787
 42
0.0000000000000062
  0
ELLIPSE
  5
398
330
1F
100
AcDbEntity
  8
1
  6
Continuous
 62
     7
370
     9
100
AcDbEllipse
 10
67.18433171305446
 20
533.1005908765035
 30
0.0
 11
-35.5
 21
4.347496136973104E-15
 31
0.0
210
0.0
220
0.0
230
1.0
 40
0.7070422535211266
 41
2.845000508239831
 42
3.141592653589799
  0
LINE
  5
399
330
1F
100
AcDbEntity
  8
1
  6
Continuous
 62
     7
370
     9
100
AcDbLine
 10
272.9828165228898
 20
475.9125137067532
 30
0.0
 11
308.4828165228898
 21
475.9125137067532
 31
0.0
  0
LINE
  5
39A
330
1F
100
AcDbEntity
  8
1
  6
Continuous
 62
     7
370
     9
100
AcDbLine
 10
274.9828165228898
 20
467.4125137067532
 30
0.0
 11
341.9828165228898
 21
467.4125137067532
 31
0.0
  0
LINE
  5
39B
330
1F
100
AcDbEntity
  8
1
  6
Continuous
 62
     7
370
     9
100
AcDbLine
 10
342.4328165228898
 20
477.4625137067532
 30
0.0
 11
343.9828165228897
 21
475.9125137067532
 31
0.0
  0
LINE
  5
39C
330
1F
100
AcDbEntity
  8
1
  6
Continuous
 62
     7
370
     9
100
AcDbLine
 10
272.9828165228897
 20
475.9125137067532
 30
0.0
 11
274.5328165228898
 21
477.4625137067533
 31
0.0
  0
LINE
  5
39D
330
1F
100
AcDbEntity
  8
1
  6
Continuous
 62
     7
370
     9
100
AcDbLine
 10
272.9828165228898
 20
475.9125137067532
 30
0.0
 11
272.9828165228898
 21
469.4125137067532
 31
0.0
  0
LINE
  5
39E
330
1F
100
AcDbEntity
  8
1
  6
Continuous
 62
     7
370
     9
100
AcDbLine
 10
343.9828165228898
 20
475.9125137067532
 30
0.0
 11
343.9828165228898
 21
469.4125137067532
 31
0.0
  0
LINE
  5
39F
330
1F
100
AcDbEntity
  8
1
  6
Continuous
 62
     7
370
     9
100
AcDbLine
 10
274.5328165228898
 20
525.7647932389747
 30
0.0
 11
274.5328165228898
 21
477.4625137067533
 31
0.0
  0
LINE
  5
3A0
330
1F
100
AcDbEntity
  8
1
  6
Continuous
 62
     7
370
     9
100
AcDbLine
 10
342.4328165228898
 20
525.7647932389744
 30
0.0
 11
342.4328165228898
 21
477.4625137067532
 31
0.0
  0
LINE
  5
3A1
330
1F
100
AcDbEntity
  8
1
  6
Continuous
 62
     7
370
     9
100
AcDbLine
 10
274.5328165228898
 20
477.4625137067533
 30
0.0
 11
308.4828165228898
 21
477.4625137067533
 31
0.0
  0
LINE
  5
3A2
330
1F
100
AcDbEntity
  8
1
  6
Continuous
 62
     7
370
     9
100
AcDbLine
 10
308.4828165228898
 20
475.9125137067532
 30
0.0
 11
343.9828165228897
 21
475.9125137067532
 31
0.0
  0
LINE
  5
3A3
330
1F
100
AcDbEntity
  8
1
  6
Continuous
 62
     7
370
     9
100
AcDbLine
 10
308.4828165228898
 20
477.4625137067533
 30
0.0
 11
342.4328165228898
 21
477.4625137067533
 31
0.0
  0
LINE
  5
3A4
330
1F
100
AcDbEntity
  8
1
  6
Continuous
 62
     7
370
     9
100
AcDbLine
 10
272.9828165228898
 20
539.1109985165884
 30
0.0
 11
272.9828165228898
 21
533.1005908765035
 31
0.0
  0
LINE
  5
3A5
330
1F
100
AcDbEntity
  8
1
  6
Continuous
 62
     7
370
     9
100
AcDbLine
 10
343.9828165228898
 20
539.1109985165884
 30
0.0
 11
343.9828165228898
 21
533.1005908765035
 31
0.0
  0
LINE
  5
3A6
330
1F
100
AcDbEntity
  8
1
  6
Continuous
 62
     7
370
     9
100
AcDbLine
 10
306.4828165228898
 20
496.1783903889329
 30
0.0
 11
276.5328165228898
 21
508.5840865820072
 31
0.0
  0
LINE
  5
3A7
330
1F
100
AcDbEntity
  8
1
  6
Continuous
 62
     7
370
     9
100
AcDbLine
 10
310.4828165228898
 20
496.1783903889329
 30
0.0
 11
340.4328165228898
 21
508.5840865820072
 31
0.0
  0
ARC
  5
3A8
330
1F
100
AcDbEntity
  8
1
  6
Continuous
 62
     7
370
     9
100
AcDbCircle
 10
274.9828165228898
 20
469.4125137067532
 30
0.0
 40
2.0
100
AcDbArc
 50
179.9999999999998
 51
269.9999999999998
  0
ARC
  5
3A9
330
1F
100
AcDbEntity
  8
1
  6
Continuous
 62
     7
370
     9
100
AcDbCircle
 10
341.9828165228897
 20
469.4125137067532
 30
0.0
 40
2.0
100
AcDbArc
 50
269.9999999999998
 51
0.0
  0
ELLIPSE
  5
3AA
330
1F
100
AcDbEntity
  8
1
  6
Continuous
 62
     7
370
     9
100
AcDbEllipse
 10
308.4828165228898
 20
539.1109985165884
 30
0.0
 11
35.5
 21
0.0
 31
0.0
210
0.0
220
0.0
230
1.0
 40
0.7070422535211267
 41
0.0
 42
6.283185307179586
  0
ELLIPSE
  5
3AB
330
1F
100
AcDbEntity
  8
1
  6
Continuous
 62
     7
370
     9
100
AcDbEllipse
 10
308.4828165228898
 20
533.1005908765035
 30
0.0
 11
35.5
 21
0.0
 31
0.0
210
0.0
220
0.0
230
1.0
 40
0.7070422535211267
 41
-3.141592653589787
 42
0.0000000000000062
  0
ELLIPSE
  5
3AC
330
1F
100
AcDbEntity
  8
1
  6
Continuous
 62
     7
370
     9
100
AcDbEllipse
 10
308.4828165228898
 20
539.1109985165884
 30
0.0
 11
-29.80699999999997
 21
3.650304714218512E-15
 31
0.0
210
0.0
220
0.0
230
1.0
 40
0.7071067811865512
 41
0.0
 42
6.283185307179586
  0
ELLIPSE
  5
3AD
330
1F
100
AcDbEntity
  8
1
  6
Continuous
 62
     7
370
     9
100
AcDbEllipse
 10
308.4828165228898
 20
539.1109985165884
 30
0.0
 11
-28.328
 21
3.469179452624622E-15
 31
0.0
210
0.0
220
0.0
230
1.0
 40
0.706015249929398
 41
0.0
 42
6.283185307179586
  0
LINE
  5
3AE
330
1F
100
AcDbEntity
  8
1
  6
Continuous
 62
     7
370
     9
100
AcDbLine
 10
194.5366112452759
 20
605.7609985165885
 30
0.0
 11
178.1843317130548
 21
605.7609985165885
 31
0.0
  0
LINE
  5
3AF
330
1F
100
AcDbEntity
  8
1
  6
Continuous
 62
     7
370
     9
100
AcDbLine
 10
194.536611245276
 20
673.6609985165885
 30
0.0
 11
178.1843317130548
 21
673.6609985165885
 31
0.0
  0
LINE
  5
3B0
330
1F
100
AcDbEntity
  8
1
  6
Continuous
 62
     7
370
     9
100
AcDbLine
 10
207.8828165228898
 20
604.2109985165886
 30
0.0
 11
201.8724088828048
 21
604.2109985165886
 31
0.0
  0
LINE
  5
3B1
330
1F
100
AcDbEntity
  8
1
  6
Continuous
 62
     7
370
     9
100
AcDbLine
 10
207.8828165228898
 20
675.2109985165886
 30
0.0
 11
201.872408882805
 21
675.2109985165886
 31
0.0
  0
ARC
  5
3B2
330
1F
100
AcDbEntity
  8
1
  6
Continuous
 62
     7
370
     9
100
AcDbCircle
 10
178.1843317130548
 20
639.7109985165886
 30
0.0
 40
33.94999999999948
100
AcDbArc
 50
89.99999999999991
 51
270.0000000000002
  0
ARC
  5
3B3
330
1F
100
AcDbEntity
  8
1
  6
Continuous
 62
     7
370
     9
100
AcDbCircle
 10
178.1843317130548
 20
639.7109985165886
 30
0.0
 40
35.4999999999996
100
AcDbArc
 50
73.00652153365726
 51
286.9934784663433
  0
ELLIPSE
  5
3B4
330
1F
100
AcDbEntity
  8
1
  6
Continuous
 62
     7
370
     9
100
AcDbEllipse
 10
207.8828165228898
 20
639.7109985165886
 30
0.0
 11
-4.555489842003977E-15
 21
28.328
 31
0.0
210
0.0
220
0.0
230
1.0
 40
0.7060152499293979
 41
0.0
 42
6.283185307179586
  0
ELLIPSE
  5
3B5
330
1F
100
AcDbEntity
  8
1
  6
Continuous
 62
     7
370
     9
100
AcDbEllipse
 10
207.8828165228898
 20
639.7109985165886
 30
0.0
 11
-4.793331181891146E-15
 21
29.80699999999997
 31
0.0
210
0.0
220
0.0
230
1.0
 40
0.7071067811865511
 41
0.0
 42
6.283185307179586
  0
ELLIPSE
  5
3B6
330
1F
100
AcDbEntity
  8
1
  6
Continuous
 62
     7
370
     9
100
AcDbEllipse
 10
201.8724088828048
 20
639.7109985165886
 30
0.0
 11
-5.708835406352060E-15
 21
-35.5
 31
0.0
210
0.0
220
0.0
230
1.0
 40
0.7070422535211267
 41
-3.141592653589786
 42
0.0000000000000062
  0
ELLIPSE
  5
3B7
330
1F
100
AcDbEntity
  8
1
  6
Continuous
 62
     7
370
     9
100
AcDbEllipse
 10
207.8828165228898
 20
639.7109985165886
 30
0.0
 11
-5.708835406352060E-15
 21
-35.5
 31
0.0
210
0.0
220
0.0
230
1.0
 40
0.7070422535211267
 41
0.0
 42
6.283185307179586
  0
LINE
  5
3B8
330
1F
100
AcDbEntity
  8
1
  6
Continuous
 62
     7
370
     9
100
AcDbLine
 10
705.0407806912194
 20
513.0537564961176
 30
0.0
 11
644.7245722560069
 21
573.3699649313301
 31
0.0
  0
LINE
  5
3B9
330
1F
100
AcDbEntity
  8
1
  6
Continuous
 62
     7
370
     9
100
AcDbLine
 10
603.8333294666429
 20
476.9125137067535
 30
0.0
 11
692.3333294666429
 21
476.9125137067535
 31
0.0
  0
LINE
  5
3BA
330
1F
100
AcDbEntity
  8
1
  6
Continuous
 62
     7
370
     9
100
AcDbLine
 10
707.3035223910163
 20
513.0537564961176
 30
0.0
 11
644.7245722560067
 21
575.6327066311269
 31
0.0
  0
LINE
  5
3BB
330
1F
100
AcDbEntity
  8
1
  6
Continuous
 62
     7
370
     9
100
AcDbLine
 10
603.8333294666429
 20
476.9125137067535
 30
0.0
 11
605.433329466643
 21
478.5125137067536
 31
0.0
  0
LINE
  5
3BC
330
1F
100
AcDbEntity
  8
1
  6
Continuous
 62
     7
370
     9
100
AcDbLine
 10
690.7333294666428
 20
478.5125137067536
 30
0.0
 11
692.3333294666429
 21
476.9125137067535
 31
0.0
  0
LINE
  5
3BD
330
1F
100
AcDbEntity
  8
1
  6
Continuous
 62
     7
370
     9
100
AcDbLine
 10
605.4333294666428
 20
478.5125137067537
 30
0.0
 11
690.7333294666428
 21
478.5125137067537
 31
0.0
  0
LINE
  5
3BE
330
1F
100
AcDbEntity
  8
1
  6
Continuous
 62
     7
370
     9
100
AcDbLine
 10
605.8333294666429
 20
467.4125137067535
 30
0.0
 11
690.3333294666429
 21
467.4125137067535
 31
0.0
  0
LINE
  5
3BF
330
1F
100
AcDbEntity
  8
1
  6
Continuous
 62
     7
370
     9
100
AcDbLine
 10
603.8333294666429
 20
476.9125137067535
 30
0.0
 11
603.8333294666429
 21
469.4125137067535
 31
0.0
  0
LINE
  5
3C0
330
1F
100
AcDbEntity
  8
1
  6
Continuous
 62
     7
370
     9
100
AcDbLine
 10
692.3333294666429
 20
476.9125137067535
 30
0.0
 11
692.3333294666429
 21
469.4125137067535
 31
0.0
  0
LINE
  5
3C1
330
1F
100
AcDbEntity
  8
1
  6
Continuous
 62
     7
370
     9
100
AcDbLine
 10
707.3035223910163
 20
513.0537564961174
 30
0.0
 11
705.0407806912192
 21
513.0537564961174
 31
0.0
  0
LINE
  5
3C2
330
1F
100
AcDbEntity
  8
1
  6
Continuous
 62
     7
370
     9
100
AcDbLine
 10
644.7245722560067
 20
573.36996493133
 30
0.0
 11
644.7245722560067
 21
575.6327066311269
 31
0.0
  0
LINE
  5
3C3
330
1F
100
AcDbEntity
  8
1
  6
Continuous
 62
     7
370
     9
100
AcDbLine
 10
693.6622616547775
 20
501.6752374596756
 30
0.0
 11
705.0407806912192
 21
513.0537564961174
 31
0.0
  0
LINE
  5
3C4
330
1F
100
AcDbEntity
  8
1
  6
Continuous
 62
     7
370
     9
100
AcDbLine
 10
629.2455481561767
 20
557.8909408314998
 30
0.0
 11
644.7245722560069
 21
573.3699649313301
 31
0.0
  0
LINE
  5
3C5
330
1F
100
AcDbEntity
  8
1
  6
Continuous
 62
     7
370
     9
100
AcDbLine
 10
644.7245722560067
 20
575.6327066311269
 30
0.0
 11
650.0278732834931
 21
580.9360076586133
 31
0.0
  0
LINE
  5
3C6
330
1F
100
AcDbEntity
  8
1
  6
Continuous
 62
     7
370
     9
100
AcDbLine
 10
707.3035223910163
 20
513.0537564961173
 30
0.0
 11
712.6068232499154
 21
518.3570573550165
 31
0.0
  0
LINE
  5
3C7
330
1F
100
AcDbEntity
  8
1
  6
Continuous
 62
     7
370
     9
100
AcDbLine
 10
712.6068232499154
 20
521.1854844797627
 30
0.0
 11
652.856300239652
 21
580.9360074900261
 31
0.0
  0
LINE
  5
3C8
330
1F
100
AcDbEntity
  8
1
  6
Continuous
 62
     7
370
     9
100
AcDbLine
 10
690.7333294666428
 20
494.6041696478101
 30
0.0
 11
690.7333294666428
 21
478.5125137067536
 31
0.0
  0
LINE
  5
3C9
330
1F
100
AcDbEntity
  8
1
  6
Continuous
 62
     7
370
     9
100
AcDbLine
 10
605.4333294666428
 20
500.4031595210334
 30
0.0
 11
605.4333294666428
 21
478.5125137067536
 31
0.0
  0
LINE
  5
3CA
330
1F
100
AcDbEntity
  8
1
  6
Continuous
 62
     7
370
     9
100
AcDbLine
 10
688.7333294666428
 20
499.5747323962872
 30
0.0
 11
650.0833294666429
 21
515.5840865820073
 31
0.0
  0
ARC
  5
3CB
330
1F
100
AcDbEntity
  8
1
  6
Continuous
 62
     7
370
     9
100
AcDbCircle
 10
690.3333294666429
 20
469.4125137067535
 30
0.0
 40
2.0
100
AcDbArc
 50
269.9999999999998
 51
0.0
  0
ARC
  5
3CC
330
1F
100
AcDbEntity
  8
1
  6
Continuous
 62
     7
370
     9
100
AcDbCircle
 10
686.7333294666428
 20
500.4031595210334
 30
0.0
 40
81.29999999999998
100
AcDbArc
 50
135.0
 51
179.9999999999998
  0
ARC
  5
3CD
330
1F
100
AcDbEntity
  8
1
  6
Continuous
 62
     7
370
     9
100
AcDbCircle
 10
700.7333294666428
 20
494.6041696478101
 30
0.0
 40
10.0
100
AcDbArc
 50
134.9999999999991
 51
179.9999999999998
  0
ARC
  5
3CE
330
1F
100
AcDbEntity
  8
1
  6
Continuous
 62
     7
370
     9
100
AcDbCircle
 10
605.8333294666429
 20
469.4125137067535
 30
0.0
 40
2.0
100
AcDbArc
 50
179.9999999999998
 51
269.9999999999998
  0
ARC
  5
3CF
330
1F
100
AcDbEntity
  8
1
  6
Continuous
 62
     7
370
     9
100
AcDbCircle
 10
651.4420866772789
 20
579.5217939276529
 30
0.0
 40
2.0
100
AcDbArc
 50
45.0
 51
135.0
  0
ARC
  5
3D0
330
1F
100
AcDbEntity
  8
1
  6
Continuous
 62
     7
370
     9
100
AcDbCircle
 10
711.1926096875422
 20
519.7712709173896
 30
0.0
 40
2.0
100
AcDbArc
 50
314.9999999999997
 51
45.0
  0
LINE
  5
3D1
330
1F
100
AcDbEntity
  8
1
  6
Continuous
 62
     7
370
     9
100
AcDbLine
 10
561.8333294666431
 20
467.4125137067535
 30
0.0
 11
477.3333294666431
 21
467.4125137067535
 31
0.0
  0
LINE
  5
3D2
330
1F
100
AcDbEntity
  8
1
  6
Continuous
 62
     7
370
     9
100
AcDbLine
 10
563.8333294666431
 20
476.9125137067535
 30
0.0
 11
563.8333294666431
 21
469.4125137067535
 31
0.0
  0
LINE
  5
3D3
330
1F
100
AcDbEntity
  8
1
  6
Continuous
 62
     7
370
     9
100
AcDbLine
 10
475.3333294666431
 20
476.9125137067535
 30
0.0
 11
475.3333294666431
 21
469.4125137067535
 31
0.0
  0
LINE
  5
3D4
330
1F
100
AcDbEntity
  8
1
  6
Continuous
 62
     7
370
     9
100
AcDbLine
 10
476.9333294666433
 20
543.2118607137237
 30
0.0
 11
476.9333294666433
 21
478.5125137067536
 31
0.0
  0
LINE
  5
3D5
330
1F
100
AcDbEntity
  8
1
  6
Continuous
 62
     7
370
     9
100
AcDbLine
 10
562.2333294666432
 20
543.2118607137238
 30
0.0
 11
562.2333294666432
 21
478.5125137067536
 31
0.0
  0
LINE
  5
3D6
330
1F
100
AcDbEntity
  8
1
  6
Continuous
 62
     7
370
     9
100
AcDbLine
 10
476.9333294666433
 20
478.5125137067535
 30
0.0
 11
475.3333294666431
 21
476.9125137067534
 31
0.0
  0
LINE
  5
3D7
330
1F
100
AcDbEntity
  8
1
  6
Continuous
 62
     7
370
     9
100
AcDbLine
 10
563.8333294666431
 20
476.9125137067535
 30
0.0
 11
562.2333294666432
 21
478.5125137067536
 31
0.0
  0
LINE
  5
3D8
330
1F
100
AcDbEntity
  8
1
  6
Continuous
 62
     7
370
     9
100
AcDbLine
 10
563.8333294666431
 20
476.9125137067535
 30
0.0
 11
475.3333294666431
 21
476.9125137067535
 31
0.0
  0
LINE
  5
3D9
330
1F
100
AcDbEntity
  8
1
  6
Continuous
 62
     7
370
     9
100
AcDbLine
 10
562.2333294666432
 20
478.5125137067536
 30
0.0
 11
476.9333294666433
 21
478.5125137067536
 31
0.0
  0
LINE
  5
3DA
330
1F
100
AcDbEntity
  8
1
  6
Continuous
 62
     7
370
     9
100
AcDbLine
 10
563.8333294666431
 20
551.0607459848943
 30
0.0
 11
563.8333294666431
 21
544.3432315636221
 31
0.0
  0
LINE
  5
3DB
330
1F
100
AcDbEntity
  8
1
  6
Continuous
 62
     7
370
     9
100
AcDbLine
 10
475.3333294666431
 20
551.0607459848943
 30
0.0
 11
475.3333294666431
 21
544.3432315636222
 31
0.0
  0
ARC
  5
3DC
330
1F
100
AcDbEntity
  8
1
  6
Continuous
 62
     7
370
     9
100
AcDbCircle
 10
561.8333294666431
 20
469.4125137067535
 30
0.0
 40
2.0
100
AcDbArc
 50
269.9999999999998
 51
0.0
  0
ARC
  5
3DD
330
1F
100
AcDbEntity
  8
1
  6
Continuous
 62
     7
370
     9
100
AcDbCircle
 10
477.3333294666431
 20
469.4125137067535
 30
0.0
 40
2.0
100
AcDbArc
 50
179.9999999999998
 51
269.9999999999998
  0
ELLIPSE
  5
3DE
330
1F
100
AcDbEntity
  8
1
  6
Continuous
 62
     7
370
     9
100
AcDbEllipse
 10
519.5833294666431
 20
551.0607459848943
 30
0.0
 11
-44.25
 21
5.419062086227038E-15
 31
0.0
210
0.0
220
0.0
230
1.0
 40
0.7071186440677969
 41
-3.141592653589787
 42
0.0000000000000062
  0
ELLIPSE
  5
3DF
330
1F
100
AcDbEntity
  8
1
  6
Continuous
 62
     7
370
     9
100
AcDbEllipse
 10
519.5833294666431
 20
544.3432315636222
 30
0.0
 11
-44.25
 21
5.419062086227038E-15
 31
0.0
210
0.0
220
0.0
230
1.0
 40
0.7071186440677968
 41
0.0
 42
0.2697340074904565
  0
ELLIPSE
  5
3E0
330
1F
100
AcDbEntity
  8
1
  6
Continuous
 62
     7
370
     9
100
AcDbEllipse
 10
519.5833294666431
 20
543.2118607137237
 30
0.0
 11
-42.64999999999998
 21
-5.223118598363459E-15
 31
0.0
210
0.0
220
0.0
230
1.0
 40
0.7071067811865485
 41
-3.141592653589788
 42
0.0000000000000062
  0
ELLIPSE
  5
3E1
330
1F
100
AcDbEntity
  8
1
  6
Continuous
 62
     7
370
     9
100
AcDbEllipse
 10
519.5833294666431
 20
544.3432315636222
 30
0.0
 11
-44.25
 21
5.419062086227038E-15
 31
0.0
210
0.0
220
0.0
230
1.0
 40
0.7071186440677968
 41
-3.141592653589787
 42
0.0000000000000062
  0
ELLIPSE
  5
3E2
330
1F
100
AcDbEntity
  8
1
  6
Continuous
 62
     7
370
     9
100
AcDbEllipse
 10
519.5833294666431
 20
544.3432315636222
 30
0.0
 11
-44.25
 21
5.419062086227038E-15
 31
0.0
210
0.0
220
0.0
230
1.0
 40
0.7071186440677968
 41
2.871858646099337
 42
3.141592653589799
  0
LINE
  5
3E3
330
1F
100
AcDbEntity
  8
1
  6
Continuous
 62
     7
370
     9
100
AcDbLine
 10
842.5215617447839
 20
551.0607459848943
 30
0.0
 11
842.5215617447839
 21
544.3432315636222
 31
0.0
  0
LINE
  5
3E4
330
1F
100
AcDbEntity
  8
1
  6
Continuous
 62
     7
370
     9
100
AcDbLine
 10
754.0215617447839
 20
551.0607459848943
 30
0.0
 11
754.0215617447839
 21
544.3432315636221
 31
0.0
  0
LINE
  5
3E5
330
1F
100
AcDbEntity
  8
1
  6
Continuous
 62
     7
370
     9
100
AcDbLine
 10
755.621561744784
 20
478.5125137067536
 30
0.0
 11
840.921561744784
 21
478.5125137067536
 31
0.0
  0
LINE
  5
3E6
330
1F
100
AcDbEntity
  8
1
  6
Continuous
 62
     7
370
     9
100
AcDbLine
 10
754.0215617447839
 20
476.9125137067535
 30
0.0
 11
842.5215617447839
 21
476.9125137067535
 31
0.0
  0
LINE
  5
3E7
330
1F
100
AcDbEntity
  8
1
  6
Continuous
 62
     7
370
     9
100
AcDbLine
 10
754.0215617447839
 20
476.9125137067535
 30
0.0
 11
755.621561744784
 21
478.5125137067537
 31
0.0
  0
LINE
  5
3E8
330
1F
100
AcDbEntity
  8
1
  6
Continuous
 62
     7
370
     9
100
AcDbLine
 10
840.921561744784
 20
478.5125137067535
 30
0.0
 11
842.5215617447839
 21
476.9125137067535
 31
0.0
  0
LINE
  5
3E9
330
1F
100
AcDbEntity
  8
1
  6
Continuous
 62
     7
370
     9
100
AcDbLine
 10
755.621561744784
 20
536.0052262479221
 30
0.0
 11
755.621561744784
 21
478.5125137067536
 31
0.0
  0
LINE
  5
3EA
330
1F
100
AcDbEntity
  8
1
  6
Continuous
 62
     7
370
     9
100
AcDbLine
 10
840.921561744784
 20
536.0052262479221
 30
0.0
 11
840.921561744784
 21
478.5125137067536
 31
0.0
  0
LINE
  5
3EB
330
1F
100
AcDbEntity
  8
1
  6
Continuous
 62
     7
370
     9
100
AcDbLine
 10
842.5215617447839
 20
476.9125137067535
 30
0.0
 11
842.5215617447839
 21
469.4125137067535
 31
0.0
  0
LINE
  5
3EC
330
1F
100
AcDbEntity
  8
1
  6
Continuous
 62
     7
370
     9
100
AcDbLine
 10
754.0215617447839
 20
476.9125137067535
 30
0.0
 11
754.0215617447839
 21
469.4125137067535
 31
0.0
  0
LINE
  5
3ED
330
1F
100
AcDbEntity
  8
1
  6
Continuous
 62
     7
370
     9
100
AcDbLine
 10
756.0215617447839
 20
467.4125137067535
 30
0.0
 11
840.5215617447839
 21
467.4125137067535
 31
0.0
  0
LINE
  5
3EE
330
1F
100
AcDbEntity
  8
1
  6
Continuous
 62
     7
370
     9
100
AcDbLine
 10
796.2715617447839
 20
499.5747323962872
 30
0.0
 11
757.621561744784
 21
515.5840865820073
 31
0.0
  0
LINE
  5
3EF
330
1F
100
AcDbEntity
  8
1
  6
Continuous
 62
     7
370
     9
100
AcDbLine
 10
800.2715617447839
 20
499.5747323962872
 30
0.0
 11
838.921561744784
 21
515.5840865820073
 31
0.0
  0
ARC
  5
3F0
330
1F
100
AcDbEntity
  8
1
  6
Continuous
 62
     7
370
     9
100
AcDbCircle
 10
840.5215617447839
 20
469.4125137067535
 30
0.0
 40
2.0
100
AcDbArc
 50
269.9999999999998
 51
0.0
  0
ARC
  5
3F1
330
1F
100
AcDbEntity
  8
1
  6
Continuous
 62
     7
370
     9
100
AcDbCircle
 10
756.0215617447839
 20
469.4125137067535
 30
0.0
 40
2.0
100
AcDbArc
 50
179.9999999999998
 51
269.9999999999998
  0
ELLIPSE
  5
3F2
330
1F
100
AcDbEntity
  8
1
  6
Continuous
 62
     7
370
     9
100
AcDbEllipse
 10
798.2715617447839
 20
551.0607459848943
 30
0.0
 11
-37.59199999999983
 21
4.603692247354709E-15
 31
0.0
210
0.0
220
0.0
230
1.0
 40
0.7071067811865475
 41
0.0
 42
6.283185307179586
  0
ELLIPSE
  5
3F3
330
1F
100
AcDbEntity
  8
1
  6
Continuous
 62
     7
370
     9
100
AcDbEllipse
 10
798.2715617447839
 20
551.0607459848943
 30
0.0
 11
-36.11300000000009
 21
3.649735425639155E-14
 31
0.0
210
0.0
220
0.0
230
1.0
 40
0.7071067811865482
 41
0.0
 42
6.283185307179586
  0
ELLIPSE
  5
3F4
330
1F
100
AcDbEntity
  8
1
  6
Continuous
 62
     7
370
     9
100
AcDbEllipse
 10
798.2715617447839
 20
544.3432315636222
 30
0.0
 11
44.25
 21
0.0
 31
0.0
210
0.0
220
0.0
230
1.0
 40
0.7071186440677966
 41
-3.141592653589787
 42
0.0000000000000062
  0
ELLIPSE
  5
3F5
330
1F
100
AcDbEntity
  8
1
  6
Continuous
 62
     7
370
     9
100
AcDbEllipse
 10
798.2715617447839
 20
551.0607459848943
 30
0.0
 11
44.25
 21
0.0
 31
0.0
210
0.0
220
0.0
230
1.0
 40
0.7071186440677968
 41
0.0
 42
6.283185307179586
  0
LINE
  5
3F6
330
1F
100
AcDbEntity
  8
1
  6
Continuous
 62
     7
370
     9
100
AcDbLine
 10
682.7315617447837
 20
622.1762403901947
 30
0.0
 11
676.0140473235115
 21
622.1762403901947
 31
0.0
  0
LINE
  5
3F7
330
1F
100
AcDbEntity
  8
1
  6
Continuous
 62
     7
370
     9
100
AcDbLine
 10
682.7315617447837
 20
710.6762403901947
 30
0.0
 11
676.0140473235115
 21
710.6762403901947
 31
0.0
  0
LINE
  5
3F8
330
1F
100
AcDbEntity
  8
1
  6
Continuous
 62
     7
370
     9
100
AcDbLine
 10
667.6760420078115
 20
709.0762403901948
 30
0.0
 11
648.0833294666429
 21
709.0762403901948
 31
0.0
  0
LINE
  5
3F9
330
1F
100
AcDbEntity
  8
1
  6
Continuous
 62
     7
370
     9
100
AcDbLine
 10
667.6760420078115
 20
623.7762403901947
 30
0.0
 11
648.0833294666429
 21
623.7762403901947
 31
0.0
  0
ARC
  5
3FA
330
1F
100
AcDbEntity
  8
1
  6
Continuous
 62
     7
370
     9
100
AcDbCircle
 10
648.0833294666429
 20
666.4262403901947
 30
0.0
 40
42.64999999999999
100
AcDbArc
 50
90.0000000000003
 51
269.9999999999999
  0
ARC
  5
3FB
330
1F
100
AcDbEntity
  8
1
  6
Continuous
 62
     7
370
     9
100
AcDbCircle
 10
648.0833294666429
 20
666.4262403901947
 30
0.0
 40
44.25
100
AcDbArc
 50
74.54537915066699
 51
285.4546208493333
  0
ELLIPSE
  5
3FC
330
1F
100
AcDbEntity
  8
1
  6
Continuous
 62
     7
370
     9
100
AcDbEllipse
 10
682.7315617447837
 20
666.4262403901947
 30
0.0
 11
6.073155164206951E-14
 21
37.59199999999981
 31
0.0
210
0.0
220
0.0
230
1.0
 40
0.7071067811865474
 41
0.0
 42
6.283185307179586
  0
ELLIPSE
  5
3FD
330
1F
100
AcDbEntity
  8
1
  6
Continuous
 62
     7
370
     9
100
AcDbEllipse
 10
682.7315617447837
 20
666.4262403901947
 30
0.0
 11
-1.694141649275175E-14
 21
-44.25
 31
0.0
210
0.0
220
0.0
230
1.0
 40
0.7071186440677968
 41
0.0
 42
6.283185307179586
  0
ELLIPSE
  5
3FE
330
1F
100
AcDbEntity
  8
1
  6
Continuous
 62
     7
370
     9
100
AcDbEllipse
 10
676.0140473235115
 20
666.4262403901947
 30
0.0
 11
-1.694141649275175E-14
 21
-44.25
 31
0.0
210
0.0
220
0.0
230
1.0
 40
0.7071186440677968
 41
-3.141592653589788
 42
0.0000000000000062
  0
ELLIPSE
  5
3FF
330
1F
100
AcDbEntity
  8
1
  6
Continuous
 62
     7
370
     9
100
AcDbEllipse
 10
682.7315617447837
 20
666.4262403901947
 30
0.0
 11
5.834216121648415E-14
 21
36.11300000000008
 31
0.0
210
0.0
220
0.0
230
1.0
 40
0.7071067811865486
 41
0.0
 42
6.283185307179586
  0
LINE
  5
400
330
1F
100
AcDbEntity
  8
1
  6
DASHDOT
 62
     7
370
     9
100
AcDbLine
 10
1203.776382878218
 20
521.4125137067535
 30
0.0
 11
1203.776382878218
 21
463.4125137067535
 31
0.0
  0
LINE
  5
401
330
1F
100
AcDbEntity
  8
1
  6
Continuous
 62
     7
370
     9
100
AcDbLine
 10
1152.776382878218
 20
477.9125137067535
 30
0.0
 11
1152.776382878218
 21
469.4125137067535
 31
0.0
  0
LINE
  5
402
330
1F
100
AcDbEntity
  8
1
  6
Continuous
 62
     7
370
     9
100
AcDbLine
 10
1154.276382878218
 20
502.7729047486634
 30
0.0
 11
1154.276382878218
 21
479.4125137067535
 31
0.0
  0
LINE
  5
403
330
1F
100
AcDbEntity
  8
1
  6
Continuous
 62
     7
370
     9
100
AcDbLine
 10
1198.473082019319
 20
586.1127841853227
 30
0.0
 11
1198.473082019319
 21
588.2341045288823
 31
0.0
  0
LINE
  5
404
330
1F
100
AcDbEntity
  8
1
  6
Continuous
 62
     7
370
     9
100
AcDbLine
 10
1276.608381340432
 20
524.9480476126863
 30
0.0
 11
1207.311916784151
 21
594.244512168968
 31
0.0
  0
LINE
  5
405
330
1F
100
AcDbEntity
  8
1
  6
Continuous
 62
     7
370
     9
100
AcDbLine
 10
1253.276382878218
 20
479.4125137067535
 30
0.0
 11
1254.776382878218
 21
477.9125137067535
 31
0.0
  0
LINE
  5
406
330
1F
100
AcDbEntity
  8
1
  6
Continuous
 62
     7
370
     9
100
AcDbLine
 10
1256.79110150398
 20
504.4236609950467
 30
0.0
 11
1268.476653356787
 21
516.1092128478545
 31
0.0
  0
LINE
  5
407
330
1F
100
AcDbEntity
  8
1
  6
Continuous
 62
     7
370
     9
100
AcDbLine
 10
1154.776382878218
 20
467.4125137067535
 30
0.0
 11
1252.776382878218
 21
467.4125137067535
 31
0.0
  0
LINE
  5
408
330
1F
100
AcDbEntity
  8
1
  6
Continuous
 62
     7
370
     9
100
AcDbLine
 10
1181.954792056089
 20
569.594494222093
 30
0.0
 11
1198.473082019319
 21
586.1127841853227
 31
0.0
  0
LINE
  5
409
330
1F
100
AcDbEntity
  8
1
  6
Continuous
 62
     7
370
     9
100
AcDbLine
 10
1152.776382878218
 20
477.9125137067534
 30
0.0
 11
1154.276382878218
 21
479.4125137067535
 31
0.0
  0
LINE
  5
40A
330
1F
100
AcDbEntity
  8
1
  6
Continuous
 62
     7
370
     9
100
AcDbLine
 10
1270.597973700347
 20
516.1092128478545
 30
0.0
 11
1268.476653356787
 21
516.1092128478545
 31
0.0
  0
LINE
  5
40B
330
1F
100
AcDbEntity
  8
1
  6
Continuous
 62
     7
370
     9
100
AcDbLine
 10
1254.776382878218
 20
477.9125137067535
 30
0.0
 11
1254.776382878218
 21
469.4125137067535
 31
0.0
  0
LINE
  5
40C
330
1F
100
AcDbEntity
  8
1
  6
DASHDOT
 62
     7
370
     9
100
AcDbLine
 10
1203.776382878218
 20
521.4125137067535
 30
0.0
 11
1244.788576187038
 21
562.4247070155733
 31
0.0
  0
LINE
  5
40D
330
1F
100
AcDbEntity
  8
1
  6
Continuous
 62
     7
370
     9
100
AcDbLine
 10
1253.276382878218
 20
495.9383796208082
 30
0.0
 11
1253.276382878218
 21
479.4125137067535
 31
0.0
  0
LINE
  5
40E
330
1F
100
AcDbEntity
  8
1
  6
Continuous
 62
     7
370
     9
100
AcDbLine
 10
1198.473082019319
 20
588.2341045288822
 30
0.0
 11
1204.483489659405
 21
594.2445121689678
 31
0.0
  0
LINE
  5
40F
330
1F
100
AcDbEntity
  8
1
  6
Continuous
 62
     7
370
     9
100
AcDbLine
 10
1270.597973700347
 20
516.1092128478545
 30
0.0
 11
1276.608381340432
 21
522.1196204879401
 31
0.0
  0
LINE
  5
410
330
1F
100
AcDbEntity
  8
1
  6
Continuous
 62
     7
370
     9
100
AcDbLine
 10
1152.776382878218
 20
477.9125137067535
 30
0.0
 11
1254.776382878218
 21
477.9125137067535
 31
0.0
  0
LINE
  5
411
330
1F
100
AcDbEntity
  8
1
  6
Continuous
 62
     7
370
     9
100
AcDbLine
 10
1269.183760137974
 20
517.5234264102276
 30
0.0
 11
1199.887295581692
 21
586.8198909665092
 31
0.0
  0
LINE
  5
412
330
1F
100
AcDbEntity
  8
1
  6
Continuous
 62
     7
370
     9
100
AcDbLine
 10
1270.597973700347
 20
516.1092128478545
 30
0.0
 11
1198.473082019319
 21
588.2341045288823
 31
0.0
  0
LINE
  5
413
330
1F
100
AcDbEntity
  8
1
  6
Continuous
 62
     7
370
     9
100
AcDbLine
 10
1268.476653356787
 20
516.1092128478545
 30
0.0
 11
1198.473082019319
 21
586.1127841853225
 31
0.0
  0
LINE
  5
414
330
1F
100
AcDbEntity
  8
1
  6
Continuous
 62
     7
370
     9
100
AcDbLine
 10
1154.276382878218
 20
479.4125137067535
 30
0.0
 11
1253.276382878218
 21
479.4125137067535
 31
0.0
  0
LINE
  5
415
330
1F
100
AcDbEntity
  8
1
  6
Continuous
 62
     7
370
     9
100
AcDbLine
 10
1251.418189890549
 20
501.6786311062846
 30
0.0
 11
1206.776382878218
 21
520.1698730196342
 31
0.0
  0
ARC
  5
416
330
1F
100
AcDbEntity
  8
1
  6
Continuous
 62
     7
370
     9
100
AcDbCircle
 10
1265.276382878218
 20
495.9383796208082
 30
0.0
 40
12.0
100
AcDbArc
 50
135.0
 51
180.0000000000002
  0
ARC
  5
417
330
1F
100
AcDbEntity
  8
1
  6
Continuous
 62
     7
370
     9
100
AcDbCircle
 10
1205.897703221778
 20
592.8302986065949
 30
0.0
 40
2.0
100
AcDbArc
 50
45.0000000000046
 51
135.0000000000046
  0
ARC
  5
418
330
1F
100
AcDbEntity
  8
1
  6
Continuous
 62
     7
370
     9
100
AcDbCircle
 10
1252.776382878218
 20
469.4125137067535
 30
0.0
 40
2.0
100
AcDbArc
 50
269.9999999999998
 51
0.0
  0
ARC
  5
419
330
1F
100
AcDbEntity
  8
1
  6
Continuous
 62
     7
370
     9
100
AcDbCircle
 10
1275.194167778059
 20
523.5338340503132
 30
0.0
 40
2.0
100
AcDbArc
 50
314.9999999999951
 51
45.0000000000046
  0
ARC
  5
41A
330
1F
100
AcDbEntity
  8
1
  6
Continuous
 62
     7
370
     9
100
AcDbCircle
 10
1248.776382878218
 20
502.7729033999642
 30
0.0
 40
94.50000000000001
100
AcDbArc
 50
134.9999999999999
 51
179.9999999999998
  0
ARC
  5
41B
330
1F
100
AcDbEntity
  8
1
  6
Continuous
 62
     7
370
     9
100
AcDbCircle
 10
1154.776382878218
 20
469.4125137067535
 30
0.0
 40
2.0
100
AcDbArc
 50
179.9999999999998
 51
269.9999999999998
  0
LINE
  5
41C
330
1F
100
AcDbEntity
  8
1
  6
DASHDOT
 62
     7
370
     9
100
AcDbLine
 10
1369.020149062291
 20
599.6562798908271
 30
0.0
 11
1369.020149062291
 21
463.4125137067535
 31
0.0
  0
LINE
  5
41D
330
1F
100
AcDbEntity
  8
1
  6
Continuous
 62
     7
370
     9
100
AcDbLine
 10
1318.020149062291
 20
477.9125137067535
 30
0.0
 11
1318.020149062291
 21
469.4125137067535
 31
0.0
  0
LINE
  5
41E
330
1F
100
AcDbEntity
  8
1
  6
Continuous
 62
     7
370
     9
100
AcDbLine
 10
1319.520149062291
 20
543.4903698367884
 30
0.0
 11
1319.520149062291
 21
479.4125137067535
 31
0.0
  0
LINE
  5
41F
330
1F
100
AcDbEntity
  8
1
  6
Continuous
 62
     7
370
     9
100
AcDbLine
 10
1418.520149062291
 20
479.4125137067535
 30
0.0
 11
1420.020149062291
 21
477.9125137067535
 31
0.0
  0
LINE
  5
420
330
1F
100
AcDbEntity
  8
1
  6
Continuous
 62
     7
370
     9
100
AcDbLine
 10
1320.020149062291
 20
467.4125137067535
 30
0.0
 11
1418.020149062291
 21
467.4125137067535
 31
0.0
  0
LINE
  5
421
330
1F
100
AcDbEntity
  8
1
  6
Continuous
 62
     7
370
     9
100
AcDbLine
 10
1318.020149062291
 20
477.9125137067537
 30
0.0
 11
1319.520149062291
 21
479.4125137067537
 31
0.0
  0
LINE
  5
422
330
1F
100
AcDbEntity
  8
1
  6
Continuous
 62
     7
370
     9
100
AcDbLine
 10
1420.020149062291
 20
477.9125137067535
 30
0.0
 11
1420.020149062291
 21
469.4125137067535
 31
0.0
  0
LINE
  5
423
330
1F
100
AcDbEntity
  8
1
  6
Continuous
 62
     7
370
     9
100
AcDbLine
 10
1418.520149062291
 20
543.4903698367883
 30
0.0
 11
1418.520149062291
 21
479.4125137067535
 31
0.0
  0
LINE
  5
424
330
1F
100
AcDbEntity
  8
1
  6
Continuous
 62
     7
370
     9
100
AcDbLine
 10
1319.520149062291
 20
479.4125137067535
 30
0.0
 11
1418.520149062291
 21
479.4125137067535
 31
0.0
  0
LINE
  5
425
330
1F
100
AcDbEntity
  8
1
  6
DASHDOT
 62
     7
370
     9
100
AcDbLine
 10
1314.020149062291
 20
559.5962798908271
 30
0.0
 11
1424.020149062291
 21
559.5962798908271
 31
0.0
  0
LINE
  5
426
330
1F
100
AcDbEntity
  8
1
  6
Continuous
 62
     7
370
     9
100
AcDbLine
 10
1318.020149062291
 20
477.9125137067535
 30
0.0
 11
1420.020149062291
 21
477.9125137067535
 31
0.0
  0
LINE
  5
427
330
1F
100
AcDbEntity
  8
1
  6
Continuous
 62
     7
370
     9
100
AcDbLine
 10
1318.020149062291
 20
559.5962798908271
 30
0.0
 11
1318.020149062291
 21
552.1716586883683
 31
0.0
  0
LINE
  5
428
330
1F
100
AcDbEntity
  8
1
  6
Continuous
 62
     7
370
     9
100
AcDbLine
 10
1420.020149062291
 20
559.5962798908272
 30
0.0
 11
1420.020149062291
 21
552.1716586883684
 31
0.0
  0
LINE
  5
429
330
1F
100
AcDbEntity
  8
1
  6
Continuous
 62
     7
370
     9
100
AcDbLine
 10
1320.020149062291
 20
477.9125137067535
 30
0.0
 11
1418.020149062291
 21
477.9125137067535
 31
0.0
  0
LINE
  5
42A
330
1F
100
AcDbEntity
  8
1
  6
Continuous
 62
     7
370
     9
100
AcDbLine
 10
1320.020149062291
 20
477.9125137067535
 30
0.0
 11
1418.020149062291
 21
477.9125137067535
 31
0.0
  0
LINE
  5
42B
330
1F
100
AcDbEntity
  8
1
  6
Continuous
 62
     7
370
     9
100
AcDbLine
 10
1366.020149062291
 20
502.1515830564047
 30
0.0
 11
1322.520149062291
 21
520.1698730196342
 31
0.0
  0
LINE
  5
42C
330
1F
100
AcDbEntity
  8
1
  6
Continuous
 62
     7
370
     9
100
AcDbLine
 10
1372.020149062291
 20
502.1515830564047
 30
0.0
 11
1415.520149062291
 21
520.1698730196342
 31
0.0
  0
ARC
  5
42D
330
1F
100
AcDbEntity
  8
1
  6
Continuous
 62
     7
370
     9
100
AcDbCircle
 10
1418.020149062291
 20
469.4125137067535
 30
0.0
 40
2.0
100
AcDbArc
 50
269.9999999999998
 51
0.0
  0
ARC
  5
42E
330
1F
100
AcDbEntity
  8
1
  6
Continuous
 62
     7
370
     9
100
AcDbCircle
 10
1320.020149062291
 20
469.4125137067535
 30
0.0
 40
2.0
100
AcDbArc
 50
179.9999999999998
 51
269.9999999999998
  0
ELLIPSE
  5
42F
330
1F
100
AcDbEntity
  8
1
  6
Continuous
 62
     7
370
     9
100
AcDbEllipse
 10
1369.020149062291
 20
559.5962798908271
 30
0.0
 11
50.99999999999997
 21
0.0
 31
0.0
210
0.0
220
0.0
230
1.0
 40
0.7070588235294123
 41
0.0
 42
6.283185307179586
  0
ELLIPSE
  5
430
330
1F
100
AcDbEntity
  8
1
  6
Continuous
 62
     7
370
     9
100
AcDbEllipse
 10
1369.020149062291
 20
552.1716586883683
 30
0.0
 11
51.0
 21
0.0
 31
0.0
210
0.0
220
0.0
230
1.0
 40
0.707058823529412
 41
-3.141592653589787
 42
0.0000000000000062
  0
ELLIPSE
  5
431
330
1F
100
AcDbEntity
  8
1
  6
Continuous
 62
     7
370
     9
100
AcDbEllipse
 10
1369.020149062291
 20
559.5962798908271
 30
0.0
 11
-43.94200000000014
 21
5.381342964813317E-15
 31
0.0
210
0.0
220
0.0
230
1.0
 40
0.7071067811865474
 41
0.0
 42
6.283185307179586
  0
ELLIPSE
  5
432
330
1F
100
AcDbEntity
  8
1
  6
Continuous
 62
     7
370
     9
100
AcDbEllipse
 10
1369.020149062291
 20
559.5962798908271
 30
0.0
 11
-42.46300000000031
 21
5.200217703219443E-15
 31
0.0
210
0.0
220
0.0
230
1.0
 40
0.7071067811865476
 41
0.0
 42
6.283185307179586
  0
LINE
  5
433
330
1F
100
AcDbEntity
  8
1
  6
Continuous
 62
     7
370
     9
100
AcDbLine
 10
1110.776382878218
 20
477.9125137067535
 30
0.0
 11
1012.776382878218
 21
477.9125137067535
 31
0.0
  0
LINE
  5
434
330
1F
100
AcDbEntity
  8
1
  6
Continuous
 62
     7
370
     9
100
AcDbLine
 10
1010.776382878218
 20
559.5962798908272
 30
0.0
 11
1010.776382878218
 21
552.1716586883684
 31
0.0
  0
LINE
  5
435
330
1F
100
AcDbEntity
  8
1
  6
Continuous
 62
     7
370
     9
100
AcDbLine
 10
1112.776382878218
 20
559.5962798908271
 30
0.0
 11
1112.776382878218
 21
552.1716586883683
 31
0.0
  0
LINE
  5
436
330
1F
100
AcDbEntity
  8
1
  6
Continuous
 62
     7
370
     9
100
AcDbLine
 10
1112.776382878218
 20
477.9125137067535
 30
0.0
 11
1010.776382878218
 21
477.9125137067535
 31
0.0
  0
LINE
  5
437
330
1F
100
AcDbEntity
  8
1
  6
DASHDOT
 62
     7
370
     9
100
AcDbLine
 10
1116.776382878218
 20
559.5962798908271
 30
0.0
 11
1006.776382878218
 21
559.5962798908271
 31
0.0
  0
LINE
  5
438
330
1F
100
AcDbEntity
  8
1
  6
Continuous
 62
     7
370
     9
100
AcDbLine
 10
1111.276382878218
 20
479.4125137067535
 30
0.0
 11
1012.276382878218
 21
479.4125137067535
 31
0.0
  0
LINE
  5
439
330
1F
100
AcDbEntity
  8
1
  6
Continuous
 62
     7
370
     9
100
AcDbLine
 10
1012.276382878218
 20
551.1109985165886
 30
0.0
 11
1012.276382878218
 21
479.4125137067535
 31
0.0
  0
LINE
  5
43A
330
1F
100
AcDbEntity
  8
1
  6
Continuous
 62
     7
370
     9
100
AcDbLine
 10
1010.776382878218
 20
477.9125137067535
 30
0.0
 11
1010.776382878218
 21
469.4125137067535
 31
0.0
  0
LINE
  5
43B
330
1F
100
AcDbEntity
  8
1
  6
Continuous
 62
     7
370
     9
100
AcDbLine
 10
1112.776382878218
 20
477.9125137067535
 30
0.0
 11
1111.276382878218
 21
479.4125137067537
 31
0.0
  0
LINE
  5
43C
330
1F
100
AcDbEntity
  8
1
  6
Continuous
 62
     7
370
     9
100
AcDbLine
 10
1110.776382878218
 20
467.4125137067535
 30
0.0
 11
1012.776382878218
 21
467.4125137067535
 31
0.0
  0
LINE
  5
43D
330
1F
100
AcDbEntity
  8
1
  6
Continuous
 62
     7
370
     9
100
AcDbLine
 10
1012.276382878218
 20
479.4125137067535
 30
0.0
 11
1010.776382878218
 21
477.9125137067535
 31
0.0
  0
LINE
  5
43E
330
1F
100
AcDbEntity
  8
1
  6
Continuous
 62
     7
370
     9
100
AcDbLine
 10
1111.276382878218
 20
551.1109985165886
 30
0.0
 11
1111.276382878218
 21
479.4125137067535
 31
0.0
  0
LINE
  5
43F
330
1F
100
AcDbEntity
  8
1
  6
Continuous
 62
     7
370
     9
100
AcDbLine
 10
1112.776382878218
 20
477.9125137067535
 30
0.0
 11
1112.776382878218
 21
469.4125137067535
 31
0.0
  0
LINE
  5
440
330
1F
100
AcDbEntity
  8
1
  6
DASHDOT
 62
     7
370
     9
100
AcDbLine
 10
1061.776382878218
 20
599.6562798908271
 30
0.0
 11
1061.776382878218
 21
463.4125137067535
 31
0.0
  0
LINE
  5
441
330
1F
100
AcDbEntity
  8
1
  6
Continuous
 62
     7
370
     9
100
AcDbLine
 10
1110.776382878218
 20
477.9125137067535
 30
0.0
 11
1012.776382878218
 21
477.9125137067535
 31
0.0
  0
ARC
  5
442
330
1F
100
AcDbEntity
  8
1
  6
Continuous
 62
     7
370
     9
100
AcDbCircle
 10
1012.776382878218
 20
469.4125137067535
 30
0.0
 40
2.0
100
AcDbArc
 50
179.9999999999998
 51
269.9999999999998
  0
ARC
  5
443
330
1F
100
AcDbEntity
  8
1
  6
Continuous
 62
     7
370
     9
100
AcDbCircle
 10
1110.776382878218
 20
469.4125137067535
 30
0.0
 40
2.0
100
AcDbArc
 50
269.9999999999998
 51
0.0
  0
ELLIPSE
  5
444
330
1F
100
AcDbEntity
  8
1
  6
Continuous
 62
     7
370
     9
100
AcDbEllipse
 10
1061.776382878218
 20
559.5962798908271
 30
0.0
 11
-51.0
 21
6.245698675651501E-15
 31
0.0
210
0.0
220
0.0
230
1.0
 40
0.7070588235294122
 41
-3.141592653589787
 42
0.0000000000000062
  0
ELLIPSE
  5
445
330
1F
100
AcDbEntity
  8
1
  6
Continuous
 62
     7
370
     9
100
AcDbEllipse
 10
1061.776382878218
 20
552.1716586883683
 30
0.0
 11
-51.0
 21
6.245698675651501E-15
 31
0.0
210
0.0
220
0.0
230
1.0
 40
0.707058823529412
 41
0.0
 42
0.2431340266773003
  0
ELLIPSE
  5
446
330
1F
100
AcDbEntity
  8
1
  6
Continuous
 62
     7
370
     9
100
AcDbEllipse
 10
1061.776382878218
 20
551.1109985165886
 30
0.0
 11
-49.5
 21
-6.062001655779399E-15
 31
0.0
210
0.0
220
0.0
230
1.0
 40
0.7071067811865472
 41
-3.141592653589787
 42
0.0000000000000062
  0
ELLIPSE
  5
447
330
1F
100
AcDbEntity
  8
1
  6
Continuous
 62
     7
370
     9
100
AcDbEllipse
 10
1061.776382878218
 20
552.1716586883683
 30
0.0
 11
-51.0
 21
6.245698675651501E-15
 31
0.0
210
0.0
220
0.0
230
1.0
 40
0.707058823529412
 41
-3.141592653589787
 42
0.0000000000000062
  0
ELLIPSE
  5
448
330
1F
100
AcDbEntity
  8
1
  6
Continuous
 62
     7
370
     9
100
AcDbEllipse
 10
1061.776382878218
 20
552.1716586883683
 30
0.0
 11
-51.0
 21
6.245698675651501E-15
 31
0.0
210
0.0
220
0.0
230
1.0
 40
0.707058823529412
 41
2.898458626912492
 42
3.141592653589799
  0
LINE
  5
449
330
1F
100
AcDbEntity
  8
1
  6
Continuous
 62
     7
370
     9
100
AcDbLine
 10
1241.960149062292
 20
635.6562798908263
 30
0.0
 11
1234.535527859833
 21
635.6562798908263
 31
0.0
  0
LINE
  5
44A
330
1F
100
AcDbEntity
  8
1
  6
Continuous
 62
     7
370
     9
100
AcDbLine
 10
1241.960149062292
 20
737.6562798908272
 30
0.0
 11
1234.535527859833
 21
737.6562798908272
 31
0.0
  0
LINE
  5
44B
330
1F
100
AcDbEntity
  8
1
  6
DASHDOT
 62
     7
370
     9
100
AcDbLine
 10
1241.960149062292
 20
741.656279890827
 30
0.0
 11
1241.960149062292
 21
631.656279890827
 31
0.0
  0
LINE
  5
44C
330
1F
100
AcDbEntity
  8
1
  6
Continuous
 62
     7
370
     9
100
AcDbLine
 10
1225.854239008253
 20
637.156279890827
 30
0.0
 11
1203.776382878218
 21
637.156279890827
 31
0.0
  0
LINE
  5
44D
330
1F
100
AcDbEntity
  8
1
  6
Continuous
 62
     7
370
     9
100
AcDbLine
 10
1225.854239008253
 20
736.156279890827
 30
0.0
 11
1203.776382878218
 21
736.156279890827
 31
0.0
  0
LINE
  5
44E
330
1F
100
AcDbEntity
  8
1
  6
DASHDOT
 62
     7
370
     9
100
AcDbLine
 10
1282.020149062291
 20
686.656279890827
 30
0.0
 11
1148.776382878218
 21
686.656279890827
 31
0.0
  0
LINE
  5
44F
330
1F
100
AcDbEntity
  8
1
  6
DASHDOT
 62
     7
370
     9
100
AcDbLine
 10
1203.776382878218
 20
741.656279890827
 30
0.0
 11
1203.776382878218
 21
631.656279890827
 31
0.0
  0
ARC
  5
450
330
1F
100
AcDbEntity
  8
1
  6
Continuous
 62
     7
370
     9
100
AcDbCircle
 10
1203.776382878218
 20
686.656279890827
 30
0.0
 40
51.0
100
AcDbArc
 50
76.06944543764226
 51
283.9305545623579
  0
ARC
  5
451
330
1F
100
AcDbEntity
  8
1
  6
Continuous
 62
     7
370
     9
100
AcDbCircle
 10
1203.776382878218
 20
686.656279890827
 30
0.0
 40
49.5
100
AcDbArc
 50
89.99999999999991
 51
270.0000000000007
  0
ELLIPSE
  5
452
330
1F
100
AcDbEntity
  8
1
  6
Continuous
 62
     7
370
     9
100
AcDbEllipse
 10
1241.960149062292
 20
686.656279890827
 30
0.0
 11
-8.201425513350843E-15
 21
-50.99999999999997
 31
0.0
210
0.0
220
0.0
230
1.0
 40
0.7070588235294123
 41
0.0
 42
6.283185307179586
  0
ELLIPSE
  5
453
330
1F
100
AcDbEntity
  8
1
  6
Continuous
 62
     7
370
     9
100
AcDbEllipse
 10
1234.535527859833
 20
686.656279890827
 30
0.0
 11
-1.952570036452744E-14
 21
-51.0
 31
0.0
210
0.0
220
0.0
230
1.0
 40
0.7070588235294119
 41
-3.141592653589786
 42
0.0000000000000062
  0
ELLIPSE
  5
454
330
1F
100
AcDbEntity
  8
1
  6
Continuous
 62
     7
370
     9
100
AcDbEllipse
 10
1241.960149062292
 20
686.656279890827
 30
0.0
 11
-7.066412547209096E-15
 21
43.94200000000012
 31
0.0
210
0.0
220
0.0
230
1.0
 40
0.7071067811865471
 41
0.0
 42
6.283185307179586
  0
ELLIPSE
  5
455
330
1F
100
AcDbEntity
  8
1
  6
Continuous
 62
     7
370
     9
100
AcDbEllipse
 10
1241.960149062292
 20
686.656279890827
 30
0.0
 11
-6.828571207321952E-15
 21
42.46300000000031
 31
0.0
210
0.0
220
0.0
230
1.0
 40
0.7071067811865476
 41
0.0
 42
6.283185307179586
  0
LINE
  5
456
330
1F
100
AcDbEntity
  8
1
  6
Continuous
 62
     7
370
     9
100
AcDbLine
 10
407.5625333868454
 20
868.6441954135528
 30
0.0
 11
318.4670789573404
 21
957.7396498430578
 31
0.0
  0
LINE
  5
457
330
1F
100
AcDbEntity
  8
1
  6
Continuous
 62
     7
370
     9
100
AcDbLine
 10
380.7599721761537
 20
818.4370886323662
 30
0.0
 11
382.7599721761537
 21
816.4370886323662
 31
0.0
  0
LINE
  5
458
330
1F
100
AcDbEntity
  8
1
  6
Continuous
 62
     7
370
     9
100
AcDbLine
 10
252.7599721761537
 20
816.4370886323662
 30
0.0
 11
252.7599721761537
 21
805.9370886323662
 31
0.0
  0
LINE
  5
459
330
1F
100
AcDbEntity
  8
1
  6
Continuous
 62
     7
370
     9
100
AcDbLine
 10
385.1533704583555
 20
846.235032485063
 30
0.0
 11
397.3094850596406
 21
858.3911470863478
 31
0.0
  0
LINE
  5
45A
330
1F
100
AcDbEntity
  8
1
  6
Continuous
 62
     7
370
     9
100
AcDbLine
 10
254.7599721761537
 20
843.9127020147267
 30
0.0
 11
254.7599721761537
 21
818.4370886323662
 31
0.0
  0
LINE
  5
45B
330
1F
100
AcDbEntity
  8
1
  6
Continuous
 62
     7
370
     9
100
AcDbLine
 10
400.1379121843868
 20
858.3911470863478
 30
0.0
 11
407.5625333868454
 21
865.8157682888066
 31
0.0
  0
LINE
  5
45C
330
1F
100
AcDbEntity
  8
1
  6
Continuous
 62
     7
370
     9
100
AcDbLine
 10
400.1379121843863
 20
858.3911470863479
 30
0.0
 11
397.3094850596406
 21
858.3911470863479
 31
0.0
  0
LINE
  5
45D
330
1F
100
AcDbEntity
  8
1
  6
Continuous
 62
     7
370
     9
100
AcDbLine
 10
308.2140306301355
 20
950.3150286405989
 30
0.0
 11
315.6386518325942
 21
957.7396498430578
 31
0.0
  0
LINE
  5
45E
330
1F
100
AcDbEntity
  8
1
  6
Continuous
 62
     7
370
     9
100
AcDbLine
 10
252.7599721761537
 20
816.4370886323662
 30
0.0
 11
254.7599721761537
 21
818.4370886323662
 31
0.0
  0
LINE
  5
45F
330
1F
100
AcDbEntity
  8
1
  6
Continuous
 62
     7
370
     9
100
AcDbLine
 10
290.2000516525816
 20
929.472622538299
 30
0.0
 11
308.2140306301355
 21
947.4866015158528
 31
0.0
  0
LINE
  5
460
330
1F
100
AcDbEntity
  8
1
  6
Continuous
 62
     7
370
     9
100
AcDbLine
 10
308.2140306301355
 20
947.4866015158528
 30
0.0
 11
308.2140306301355
 21
950.315028640599
 31
0.0
  0
LINE
  5
461
330
1F
100
AcDbEntity
  8
1
  6
Continuous
 62
     7
370
     9
100
AcDbLine
 10
382.7599721761537
 20
816.4370886323662
 30
0.0
 11
382.7599721761537
 21
805.9370886323662
 31
0.0
  0
LINE
  5
462
330
1F
100
AcDbEntity
  8
1
  6
Continuous
 62
     7
370
     9
100
AcDbLine
 10
380.7599721761537
 20
835.6284307672648
 30
0.0
 11
380.7599721761537
 21
818.4370886323662
 31
0.0
  0
LINE
  5
463
330
1F
100
AcDbEntity
  8
1
  6
Continuous
 62
     7
370
     9
100
AcDbLine
 10
254.7599721761537
 20
803.9370886323662
 30
0.0
 11
380.7599721761537
 21
803.9370886323662
 31
0.0
  0
LINE
  5
464
330
1F
100
AcDbEntity
  8
1
  6
Continuous
 62
     7
370
     9
100
AcDbLine
 10
400.1379121843863
 20
858.3911470863478
 30
0.0
 11
308.2140306301355
 21
950.315028640599
 31
0.0
  0
LINE
  5
465
330
1F
100
AcDbEntity
  8
1
  6
Continuous
 62
     7
370
     9
100
AcDbLine
 10
252.7599721761537
 20
816.4370886323662
 30
0.0
 11
382.7599721761537
 21
816.4370886323662
 31
0.0
  0
LINE
  5
466
330
1F
100
AcDbEntity
  8
1
  6
Continuous
 62
     7
370
     9
100
AcDbLine
 10
254.7599721761537
 20
818.4370886323662
 30
0.0
 11
380.7599721761537
 21
818.4370886323662
 31
0.0
  0
LINE
  5
467
330
1F
100
AcDbEntity
  8
1
  6
Continuous
 62
     7
370
     9
100
AcDbLine
 10
397.3094850596406
 20
858.3911470863479
 30
0.0
 11
308.2140306301355
 21
947.4866015158528
 31
0.0
  0
LINE
  5
468
330
1F
100
AcDbEntity
  8
1
  6
Continuous
 62
     7
370
     9
100
AcDbLine
 10
378.2062610584392
 20
842.8994159822015
 30
0.0
 11
321.7599721761537
 21
866.2802343828738
 31
0.0
  0
ARC
  5
469
330
1F
100
AcDbEntity
  8
1
  6
Continuous
 62
     7
370
     9
100
AcDbCircle
 10
254.7599721761537
 20
805.9370886323662
 30
0.0
 40
2.0
100
AcDbArc
 50
179.9999999999998
 51
269.9999999999998
  0
ARC
  5
46A
330
1F
100
AcDbEntity
  8
1
  6
Continuous
 62
     7
370
     9
100
AcDbCircle
 10
395.7599721761537
 20
835.6284307672648
 30
0.0
 40
15.0
100
AcDbArc
 50
135.0
 51
180.0000000000001
  0
ARC
  5
46B
330
1F
100
AcDbEntity
  8
1
  6
Continuous
 62
     7
370
     9
100
AcDbCircle
 10
317.0528653949671
 20
956.3254362806847
 30
0.0
 40
2.0
100
AcDbArc
 50
44.9999999999954
 51
134.9999999999954
  0
ARC
  5
46C
330
1F
100
AcDbEntity
  8
1
  6
Continuous
 62
     7
370
     9
100
AcDbCircle
 10
380.7599721761537
 20
805.9370886323662
 30
0.0
 40
2.0
100
AcDbArc
 50
269.9999999999998
 51
0.0
  0
ARC
  5
46D
330
1F
100
AcDbEntity
  8
1
  6
Continuous
 62
     7
370
     9
100
AcDbCircle
 10
406.1483198244721
 20
867.2299818511797
 30
0.0
 40
2.0
100
AcDbArc
 50
315.0000000000043
 51
44.9999999999954
  0
ARC
  5
46E
330
1F
100
AcDbEntity
  8
1
  6
Continuous
 62
     7
370
     9
100
AcDbCircle
 10
375.7599721761537
 20
843.9127020147267
 30
0.0
 40
121.0
100
AcDbArc
 50
135.0
 51
179.9999999999998
  0
LINE
  5
46F
330
1F
100
AcDbEntity
  8
1
  6
Continuous
 62
     7
370
     9
100
AcDbLine
 10
586.9748061720927
 20
818.4370886323662
 30
0.0
 11
588.9748061720927
 21
816.4370886323662
 31
0.0
  0
LINE
  5
470
330
1F
100
AcDbEntity
  8
1
  6
Continuous
 62
     7
370
     9
100
AcDbLine
 10
458.9748061720927
 20
816.4370886323663
 30
0.0
 11
458.9748061720927
 21
805.9370886323663
 31
0.0
  0
LINE
  5
471
330
1F
100
AcDbEntity
  8
1
  6
Continuous
 62
     7
370
     9
100
AcDbLine
 10
460.9748061720927
 20
893.0398570942427
 30
0.0
 11
460.9748061720927
 21
818.4370886323663
 31
0.0
  0
LINE
  5
472
330
1F
100
AcDbEntity
  8
1
  6
Continuous
 62
     7
370
     9
100
AcDbLine
 10
458.9748061720927
 20
816.4370886323663
 30
0.0
 11
460.9748061720927
 21
818.4370886323663
 31
0.0
  0
LINE
  5
473
330
1F
100
AcDbEntity
  8
1
  6
Continuous
 62
     7
370
     9
100
AcDbLine
 10
588.9748061720927
 20
816.4370886323663
 30
0.0
 11
588.9748061720927
 21
805.9370886323663
 31
0.0
  0
LINE
  5
474
330
1F
100
AcDbEntity
  8
1
  6
Continuous
 62
     7
370
     9
100
AcDbLine
 10
586.9748061720927
 20
893.0398570942428
 30
0.0
 11
586.9748061720927
 21
818.4370886323663
 31
0.0
  0
LINE
  5
475
330
1F
100
AcDbEntity
  8
1
  6
Continuous
 62
     7
370
     9
100
AcDbLine
 10
460.9748061720927
 20
803.9370886323662
 30
0.0
 11
586.9748061720927
 21
803.9370886323662
 31
0.0
  0
LINE
  5
476
330
1F
100
AcDbEntity
  8
1
  6
Continuous
 62
     7
370
     9
100
AcDbLine
 10
460.9748061720927
 20
818.4370886323662
 30
0.0
 11
586.9748061720927
 21
818.4370886323662
 31
0.0
  0
LINE
  5
477
330
1F
100
AcDbEntity
  8
1
  6
Continuous
 62
     7
370
     9
100
AcDbLine
 10
458.9748061720927
 20
913.1919226283053
 30
0.0
 11
458.9748061720927
 21
904.3530878634733
 31
0.0
  0
LINE
  5
478
330
1F
100
AcDbEntity
  8
1
  6
Continuous
 62
     7
370
     9
100
AcDbLine
 10
588.9748061720927
 20
913.1919226283053
 30
0.0
 11
588.9748061720927
 21
904.3530878634733
 31
0.0
  0
LINE
  5
479
330
1F
100
AcDbEntity
  8
1
  6
Continuous
 62
     7
370
     9
100
AcDbLine
 10
458.9748061720927
 20
816.4370886323662
 30
0.0
 11
588.9748061720927
 21
816.4370886323662
 31
0.0
  0
LINE
  5
47A
330
1F
100
AcDbEntity
  8
1
  6
Continuous
 62
     7
370
     9
100
AcDbLine
 10
519.9748061720927
 20
843.4984884523536
 30
0.0
 11
464.9748061720927
 21
866.2802343828738
 31
0.0
  0
LINE
  5
47B
330
1F
100
AcDbEntity
  8
1
  6
Continuous
 62
     7
370
     9
100
AcDbLine
 10
527.9748061720927
 20
843.4984884523536
 30
0.0
 11
582.9748061720927
 21
866.2802343828738
 31
0.0
  0
ARC
  5
47C
330
1F
100
AcDbEntity
  8
1
  6
Continuous
 62
     7
370
     9
100
AcDbCircle
 10
460.9748061720927
 20
805.9370886323662
 30
0.0
 40
2.0
100
AcDbArc
 50
179.9999999999998
 51
269.9999999999998
  0
ARC
  5
47D
330
1F
100
AcDbEntity
  8
1
  6
Continuous
 62
     7
370
     9
100
AcDbCircle
 10
586.9748061720927
 20
805.9370886323662
 30
0.0
 40
2.0
100
AcDbArc
 50
269.9999999999998
 51
0.0
  0
ELLIPSE
  5
47E
330
1F
100
AcDbEntity
  8
1
  6
Continuous
 62
     7
370
     9
100
AcDbEllipse
 10
523.9748061720927
 20
913.1919226283053
 30
0.0
 11
65.0
 21
0.0
 31
0.0
210
0.0
220
0.0
230
1.0
 40
0.7070769230769232
 41
0.0
 42
6.283185307179586
  0
ELLIPSE
  5
47F
330
1F
100
AcDbEntity
  8
1
  6
Continuous
 62
     7
370
     9
100
AcDbEllipse
 10
523.9748061720927
 20
904.3530878634734
 30
0.0
 11
65.0
 21
0.0
 31
0.0
210
0.0
220
0.0
230
1.0
 40
0.7070769230769232
 41
-3.141592653589787
 42
0.0000000000000062
  0
ELLIPSE
  5
480
330
1F
100
AcDbEntity
  8
1
  6
Continuous
 62
     7
370
     9
100
AcDbEllipse
 10
523.9748061720927
 20
913.1919226283053
 30
0.0
 11
-56.51499999999999
 21
3.201879308005755E-14
 31
0.0
210
0.0
220
0.0
230
1.0
 40
0.7077766964522695
 41
0.0
 42
6.283185307179586
  0
ELLIPSE
  5
481
330
1F
100
AcDbEntity
  8
1
  6
Continuous
 62
     7
370
     9
100
AcDbEllipse
 10
523.9748061720927
 20
913.1919226283053
 30
0.0
 11
-55.03599999999997
 21
5.562175363040344E-14
 31
0.0
210
0.0
220
0.0
230
1.0
 40
0.7071067811865482
 41
0.0
 42
6.283185307179586
  0
LINE
  5
482
330
1F
100
AcDbEntity
  8
1
  6
Continuous
 62
     7
370
     9
100
AcDbLine
 10
363.0148061720927
 20
1009.151922628305
 30
0.0
 11
354.1759714072612
 21
1009.151922628305
 31
0.0
  0
LINE
  5
483
330
1F
100
AcDbEntity
  8
1
  6
Continuous
 62
     7
370
     9
100
AcDbLine
 10
363.0148061720927
 20
1139.151922628305
 30
0.0
 11
354.1759714072612
 21
1139.151922628305
 31
0.0
  0
LINE
  5
484
330
1F
100
AcDbEntity
  8
1
  6
Continuous
 62
     7
370
     9
100
AcDbLine
 10
342.8627406380303
 20
1011.151922628305
 30
0.0
 11
317.7599721761537
 21
1011.151922628305
 31
0.0
  0
LINE
  5
485
330
1F
100
AcDbEntity
  8
1
  6
Continuous
 62
     7
370
     9
100
AcDbLine
 10
342.8627406380303
 20
1137.151922628305
 30
0.0
 11
317.7599721761537
 21
1137.151922628305
 31
0.0
  0
ARC
  5
486
330
1F
100
AcDbEntity
  8
1
  6
Continuous
 62
     7
370
     9
100
AcDbCircle
 10
317.7599721761537
 20
1074.151922628305
 30
0.0
 40
65.00000000000003
100
AcDbArc
 50
75.74996730219641
 51
284.250032697804
  0
ARC
  5
487
330
1F
100
AcDbEntity
  8
1
  6
Continuous
 62
     7
370
     9
100
AcDbCircle
 10
317.7599721761537
 20
1074.151922628305
 30
0.0
 40
63.0
100
AcDbArc
 50
89.99999999999991
 51
270.0000000000001
  0
ELLIPSE
  5
488
330
1F
100
AcDbEntity
  8
1
  6
Continuous
 62
     7
370
     9
100
AcDbEllipse
 10
363.0148061720927
 20
1074.151922628305
 30
0.0
 11
2.855824738736692E-14
 21
56.51499999999999
 31
0.0
210
0.0
220
0.0
230
1.0
 40
0.7077766964522695
 41
0.0
 42
6.283185307179586
  0
ELLIPSE
  5
489
330
1F
100
AcDbEntity
  8
1
  6
Continuous
 62
     7
370
     9
100
AcDbEllipse
 10
363.0148061720927
 20
1074.151922628305
 30
0.0
 11
5.225177056850975E-14
 21
55.03599999999997
 31
0.0
210
0.0
220
0.0
230
1.0
 40
0.7071067811865479
 41
0.0
 42
6.283185307179586
  0
ELLIPSE
  5
48A
330
1F
100
AcDbEntity
  8
1
  6
Continuous
 62
     7
370
     9
100
AcDbEllipse
 10
354.1759714072612
 20
1074.151922628305
 30
0.0
 11
1.050103973381181E-13
 21
-65.0
 31
0.0
210
0.0
220
0.0
230
1.0
 40
0.7070769230769232
 41
-3.141592653589786
 42
0.0000000000000062
  0
ELLIPSE
  5
48B
330
1F
100
AcDbEntity
  8
1
  6
Continuous
 62
     7
370
     9
100
AcDbEllipse
 10
363.0148061720927
 20
1074.151922628305
 30
0.0
 11
1.050103973381181E-13
 21
-65.0
 31
0.0
210
0.0
220
0.0
230
1.0
 40
0.7070769230769232
 41
0.0
 42
6.283185307179586
  0
LINE
  5
48C
330
1F
100
AcDbEntity
  8
7
  6
DASHDOT
 62
     4
370
     9
100
AcDbLine
 10
51.83542281337307
 20
87.10171608420164
 30
0.0
 11
51.83542281337307
 21
45.77760497667185
 31
0.0
  0
LINE
  5
48D
330
1F
100
AcDbEntity
  8
7
  6
DASHDOT
 62
     4
370
     9
100
AcDbLine
 10
64.33542281337307
 20
77.09131099069127
 30
0.0
 11
39.33542281337307
 21
77.09131099069127
 31
0.0
  0
LINE
  5
48E
330
1F
100
AcDbEntity
  8
7
  6
DASHDOT
 62
     4
370
     9
100
AcDbLine
 10
88.83542335943267
 20
65.77760443046155
 30
0.0
 11
103.6846641393847
 21
80.62684521041362
 31
0.0
  0
LINE
  5
48F
330
1F
100
AcDbEntity
  8
7
  6
DASHDOT
 62
     4
370
     9
100
AcDbLine
 10
88.83542281337307
 20
65.7776043806254
 30
0.0
 11
88.83542281337307
 21
45.77760497667185
 31
0.0
  0
LINE
  5
490
330
1F
100
AcDbEntity
  8
7
  6
DASHDOT
 62
     4
370
     9
100
AcDbLine
 10
134.6595350131728
 20
87.10171608420164
 30
0.0
 11
134.6595350131728
 21
45.77760497667185
 31
0.0
  0
LINE
  5
491
330
1F
100
AcDbEntity
  8
7
  6
DASHDOT
 62
     4
370
     9
100
AcDbLine
 10
122.1595350131728
 20
77.09131099069127
 30
0.0
 11
147.1595350131728
 21
77.09131099069127
 31
0.0
  0
LINE
  5
492
330
1F
100
AcDbEntity
  8
7
  6
DASHDOT
 62
     4
370
     9
100
AcDbLine
 10
110.1595350131728
 20
111.2481641078892
 30
0.0
 11
76.33542281337307
 21
111.2481641078892
 31
0.0
  0
LINE
  5
493
330
1F
100
AcDbEntity
  8
7
  6
DASHDOT
 62
     4
370
     9
100
AcDbLine
 10
100.1491299196624
 20
123.7481641078892
 30
0.0
 11
100.1491299196624
 21
98.74816410788918
 31
0.0
  0
LINE
  5
494
330
1F
100
AcDbEntity
  8
7
  6
DASHDOT
 62
     4
370
     9
100
AcDbLine
 10
88.83542281337307
 20
123.7481641078893
 30
0.0
 11
88.83542281337307
 21
98.74816410788928
 31
0.0
  0
LINE
  5
495
330
1F
100
AcDbEntity
  8
7
  6
DASHDOT
 62
     4
370
     9
100
AcDbLine
 10
275.0473923683167
 20
78.79841891862742
 30
0.0
 11
246.0473923683167
 21
78.79841891862742
 31
0.0
  0
LINE
  5
496
330
1F
100
AcDbEntity
  8
7
  6
DASHDOT
 62
     4
370
     9
100
AcDbLine
 10
260.5473923683167
 20
90.22304050065867
 30
0.0
 11
260.5473923683167
 21
45.77760497667185
 31
0.0
  0
LINE
  5
497
330
1F
100
AcDbEntity
  8
7
  6
DASHDOT
 62
     4
370
     9
100
AcDbLine
 10
324.9928297996521
 20
116.3088273201167
 30
0.0
 11
287.0473923683167
 21
116.3088273201167
 31
0.0
  0
LINE
  5
498
330
1F
100
AcDbEntity
  8
7
  6
DASHDOT
 62
     4
370
     9
100
AcDbLine
 10
301.5473923683167
 20
130.8088273201167
 30
0.0
 11
301.5473923683167
 21
101.8088273201167
 31
0.0
  0
LINE
  5
499
330
1F
100
AcDbEntity
  8
7
  6
DASHDOT
 62
     4
370
     9
100
AcDbLine
 10
275.0473923683167
 20
78.79841891862742
 30
0.0
 11
246.0473923683167
 21
78.79841891862742
 31
0.0
  0
LINE
  5
49A
330
1F
100
AcDbEntity
  8
7
  6
DASHDOT
 62
     4
370
     9
100
AcDbLine
 10
260.5473923683167
 20
90.22304050065867
 30
0.0
 11
260.5473923683167
 21
45.77760497667185
 31
0.0
  0
LINE
  5
49B
330
1F
100
AcDbEntity
  8
7
  6
DASHDOT
 62
     4
370
     9
100
AcDbLine
 10
275.0473923683167
 20
78.79841891862742
 30
0.0
 11
246.0473923683167
 21
78.79841891862742
 31
0.0
  0
LINE
  5
49C
330
1F
100
AcDbEntity
  8
7
  6
DASHDOT
 62
     4
370
     9
100
AcDbLine
 10
260.5473923683167
 20
90.22304050065867
 30
0.0
 11
260.5473923683167
 21
45.77760497667185
 31
0.0
  0
LINE
  5
49D
330
1F
100
AcDbEntity
  8
7
  6
DASHDOT
 62
     4
370
     9
100
AcDbLine
 10
301.5473923683167
 20
66.77760533429972
 30
0.0
 11
301.5473923683167
 21
48.11093799211375
 31
0.0
  0
LINE
  5
49E
330
1F
100
AcDbEntity
  8
7
  6
DASHDOT
 62
     4
370
     9
100
AcDbLine
 10
313.5682082176208
 20
130.8088273201167
 30
0.0
 11
313.5682082176208
 21
101.8088273201167
 31
0.0
  0
LINE
  5
49F
330
1F
100
AcDbEntity
  8
7
  6
DASHDOT
 62
     4
370
     9
100
AcDbLine
 10
301.5473916614436
 20
66.77760777854573
 30
0.0
 11
314.7467181817486
 21
79.97693318623084
 31
0.0
  0
LINE
  5
4A0
330
1F
100
AcDbEntity
  8
7
  6
DASHDOT
 62
     4
370
     9
100
AcDbLine
 10
336.5786170959473
 20
78.79841891862742
 30
0.0
 11
365.5786170959473
 21
78.79841891862742
 31
0.0
  0
LINE
  5
4A1
330
1F
100
AcDbEntity
  8
7
  6
DASHDOT
 62
     4
370
     9
100
AcDbLine
 10
351.0786170959473
 20
90.22304050065867
 30
0.0
 11
351.0786170959473
 21
45.77760497667185
 31
0.0
  0
LINE
  5
4A2
330
1F
100
AcDbEntity
  8
7
  6
DASHDOT
 62
     4
370
     9
100
AcDbLine
 10
507.5340000842669
 20
82.21263400651804
 30
0.0
 11
474.5340000842669
 21
82.21263400651804
 31
0.0
  0
LINE
  5
4A3
330
1F
100
AcDbEntity
  8
7
  6
DASHDOT
 62
     4
370
     9
100
AcDbLine
 10
491.0340000842669
 20
95.0514697227656
 30
0.0
 11
491.0340000842669
 21
45.77760497667185
 31
0.0
  0
LINE
  5
4A4
330
1F
100
AcDbEntity
  8
7
  6
DASHDOT
 62
     4
370
     9
100
AcDbLine
 10
536.0339972547074
 20
68.77760781389739
 30
0.0
 11
552.2974528848232
 21
85.0410634440132
 31
0.0
  0
LINE
  5
4A5
330
1F
100
AcDbEntity
  8
7
  6
DASHDOT
 62
     4
370
     9
100
AcDbLine
 10
536.034000084267
 20
68.77760497667185
 30
0.0
 11
536.034000084267
 21
45.77760497667185
 31
0.0
  0
LINE
  5
4A6
330
1F
100
AcDbEntity
  8
7
  6
DASHDOT
 62
     4
370
     9
100
AcDbLine
 10
590.8078638766864
 20
95.0514697227656
 30
0.0
 11
590.8078638766864
 21
45.77760497667185
 31
0.0
  0
LINE
  5
4A7
330
1F
100
AcDbEntity
  8
7
  6
DASHDOT
 62
     4
370
     9
100
AcDbLine
 10
574.3078638766864
 20
82.21263400651804
 30
0.0
 11
607.3078638766864
 21
82.21263400651804
 31
0.0
  0
LINE
  5
4A8
330
1F
100
AcDbEntity
  8
7
  6
DASHDOT
 62
     4
370
     9
100
AcDbLine
 10
549.4690281604388
 20
140.0514697227657
 30
0.0
 11
549.4690281604388
 21
107.0514697227656
 31
0.0
  0
LINE
  5
4A9
330
1F
100
AcDbEntity
  8
7
  6
DASHDOT
 62
     4
370
     9
100
AcDbLine
 10
562.3078638766864
 20
123.5514697227656
 30
0.0
 11
519.534000084267
 21
123.5514697227656
 31
0.0
  0
LINE
  5
4AA
330
1F
100
AcDbEntity
  8
7
  6
DASHDOT
 62
     4
370
     9
100
AcDbLine
 10
536.034000084267
 20
140.0514697227657
 30
0.0
 11
536.034000084267
 21
107.0514697227656
 31
0.0
  0
LINE
  5
4AB
330
1F
100
AcDbEntity
  8
7
  6
DASHDOT
 62
     4
370
     9
100
AcDbLine
 10
758.5946529587874
 20
85.62684738158967
 30
0.0
 11
722.5946529587874
 21
85.62684738158967
 31
0.0
  0
LINE
  5
4AC
330
1F
100
AcDbEntity
  8
7
  6
DASHDOT
 62
     4
370
     9
100
AcDbLine
 10
740.5946529587874
 20
99.62684738158967
 30
0.0
 11
740.5946529587874
 21
45.77760497667185
 31
0.0
  0
LINE
  5
4AD
330
1F
100
AcDbEntity
  8
7
  6
DASHDOT
 62
     4
370
     9
100
AcDbLine
 10
788.5946531156175
 20
70.77760497667214
 30
0.0
 11
806.2723226452812
 21
88.45527450633597
 31
0.0
  0
LINE
  5
4AE
330
1F
100
AcDbEntity
  8
7
  6
DASHDOT
 62
     4
370
     9
100
AcDbLine
 10
788.5946531156175
 20
70.77760497667201
 30
0.0
 11
788.5946531156175
 21
45.77760497667185
 31
0.0
  0
LINE
  5
4AF
330
1F
100
AcDbEntity
  8
7
  6
DASHDOT
 62
     4
370
     9
100
AcDbLine
 10
788.5946531156175
 20
147.6268473815896
 30
0.0
 11
788.5946531156175
 21
111.6268473815897
 31
0.0
  0
LINE
  5
4B0
330
1F
100
AcDbEntity
  8
7
  6
DASHDOT
 62
     4
370
     9
100
AcDbLine
 10
803.443895520535
 20
147.6268473815896
 30
0.0
 11
803.443895520535
 21
111.6268473815897
 31
0.0
  0
LINE
  5
4B1
330
1F
100
AcDbEntity
  8
7
  6
DASHDOT
 62
     4
370
     9
100
AcDbLine
 10
817.443895520535
 20
129.6268473815896
 30
0.0
 11
770.5946531156175
 21
129.6268473815896
 31
0.0
  0
LINE
  5
4B2
330
1F
100
AcDbEntity
  8
7
  6
DASHDOT
 62
     4
370
     9
100
AcDbLine
 10
847.443895520535
 20
99.62684738158967
 30
0.0
 11
847.443895520535
 21
45.77760497667185
 31
0.0
  0
LINE
  5
4B3
330
1F
100
AcDbEntity
  8
7
  6
DASHDOT
 62
     4
370
     9
100
AcDbLine
 10
829.443895520535
 20
85.62684738158967
 30
0.0
 11
865.443895520535
 21
85.62684738158967
 31
0.0
  0
LINE
  5
4B4
330
1F
100
AcDbEntity
  8
7
  6
DASHDOT
 62
     4
370
     9
100
AcDbLine
 10
996.03862251385
 20
108.2993130912103
 30
0.0
 11
996.03862251385
 21
45.77760497667197
 31
0.0
  0
LINE
  5
4B5
330
1F
100
AcDbEntity
  8
7
  6
DASHDOT
 62
     4
370
     9
100
AcDbLine
 10
1016.78862251385
 20
92.45527450633557
 30
0.0
 11
975.2886225138501
 21
92.45527450633557
 31
0.0
  0
LINE
  5
4B6
330
1F
100
AcDbEntity
  8
7
  6
DASHDOT
 62
     4
370
     9
100
AcDbLine
 10
1049.53862251385
 20
74.77760497667197
 30
0.0
 11
1070.04471916826
 21
95.28370163108184
 31
0.0
  0
LINE
  5
4B7
330
1F
100
AcDbEntity
  8
7
  6
DASHDOT
 62
     4
370
     9
100
AcDbLine
 10
1049.538622550054
 20
74.77760501287617
 30
0.0
 11
1049.538622550054
 21
45.77760501287588
 31
0.0
  0
LINE
  5
4B8
330
1F
100
AcDbEntity
  8
7
  6
DASHDOT
 62
     4
370
     9
100
AcDbLine
 10
1115.988000158052
 20
108.2993130912103
 30
0.0
 11
1115.988000158052
 21
45.77760497667197
 31
0.0
  0
LINE
  5
4B9
330
1F
100
AcDbEntity
  8
7
  6
DASHDOT
 62
     4
370
     9
100
AcDbLine
 10
1095.238000158052
 20
92.45527450633557
 30
0.0
 11
1136.738000158052
 21
92.45527450633557
 31
0.0
  0
LINE
  5
4BA
330
1F
100
AcDbEntity
  8
7
  6
DASHDOT
 62
     4
370
     9
100
AcDbLine
 10
1083.238000158052
 20
141.0493130912101
 30
0.0
 11
1028.78862251385
 21
141.0493130912101
 31
0.0
  0
LINE
  5
4BB
330
1F
100
AcDbEntity
  8
7
  6
DASHDOT
 62
     4
370
     9
100
AcDbLine
 10
1067.393961573177
 20
161.7993130912101
 30
0.0
 11
1067.393961573177
 21
120.2993130912102
 31
0.0
  0
LINE
  5
4BC
330
1F
100
AcDbEntity
  8
7
  6
DASHDOT
 62
     4
370
     9
100
AcDbLine
 10
1049.53862251385
 20
161.7993130912101
 30
0.0
 11
1049.53862251385
 21
120.2993130912102
 31
0.0
  0
LINE
  5
4BD
330
1F
100
AcDbEntity
  8
7
  6
DASHDOT
 62
     4
370
     9
100
AcDbLine
 10
972.0003389458532
 20
195.9283970084066
 30
0.0
 11
972.0003389458532
 21
287.2358931503819
 31
0.0
  0
LINE
  5
4BE
330
1F
100
AcDbEntity
  8
7
  6
DASHDOT
 62
     4
370
     9
100
AcDbLine
 10
940.2248181125199
 20
263.0913479123088
 30
0.0
 11
1004.033151445853
 21
263.0913479123088
 31
0.0
  0
LINE
  5
4BF
330
1F
100
AcDbEntity
  8
7
  6
DASHDOT
 62
     4
370
     9
100
AcDbLine
 10
865.9023880419509
 20
236.9283970084066
 30
0.0
 11
894.8937660705993
 21
265.919775037055
 31
0.0
  0
LINE
  5
4C0
330
1F
100
AcDbEntity
  8
7
  6
DASHDOT
 62
     4
370
     9
100
AcDbLine
 10
865.9023880419509
 20
236.9283970084066
 30
0.0
 11
865.9023880419509
 21
195.9283970084066
 31
0.0
  0
LINE
  5
4C1
330
1F
100
AcDbEntity
  8
7
  6
DASHDOT
 62
     4
370
     9
100
AcDbLine
 10
892.0653389458531
 20
374.6556179413051
 30
0.0
 11
892.0653389458531
 21
310.8472846079717
 31
0.0
  0
LINE
  5
4C2
330
1F
100
AcDbEntity
  8
7
  6
DASHDOT
 62
     4
370
     9
100
AcDbLine
 10
832.6523880419509
 20
342.8800971079717
 30
0.0
 11
916.2098841839262
 21
342.8800971079717
 31
0.0
  0
LINE
  5
4C3
330
1F
100
AcDbEntity
  8
7
  6
DASHDOT
 62
     4
370
     9
100
AcDbLine
 10
865.9023880419509
 20
374.6556179413051
 30
0.0
 11
865.9023880419509
 21
310.8472846079717
 31
0.0
  0
LINE
  5
4C4
330
1F
100
AcDbEntity
  8
7
  6
DASHDOT
 62
     4
370
     9
100
AcDbLine
 10
809.1779088752842
 20
263.0913479123088
 30
0.0
 11
745.3695755419508
 21
263.0913479123088
 31
0.0
  0
LINE
  5
4C5
330
1F
100
AcDbEntity
  8
7
  6
DASHDOT
 62
     4
370
     9
100
AcDbLine
 10
777.4023880419509
 20
195.9283970084066
 30
0.0
 11
777.4023880419509
 21
287.2358931503819
 31
0.0
  0
LINE
  5
4C6
330
1F
100
AcDbEntity
  8
7
  6
DASHDOT
 62
     4
370
     9
100
AcDbLine
 10
556.4383783741957
 20
257.9700275687491
 30
0.0
 11
615.4383783741957
 21
257.9700275687491
 31
0.0
  0
LINE
  5
4C7
330
1F
100
AcDbEntity
  8
7
  6
DASHDOT
 62
     4
370
     9
100
AcDbLine
 10
585.9383783741957
 20
195.9283970084065
 30
0.0
 11
585.9383783741957
 21
280.0000275687491
 31
0.0
  0
LINE
  5
4C8
330
1F
100
AcDbEntity
  8
7
  6
DASHDOT
 62
     4
370
     9
100
AcDbLine
 10
512.4083783741956
 20
361.0000275687493
 30
0.0
 11
512.4083783741956
 21
302.0000275687491
 31
0.0
  0
LINE
  5
4C9
330
1F
100
AcDbEntity
  8
7
  6
DASHDOT
 62
     4
370
     9
100
AcDbLine
 10
458.8667478138531
 20
331.5000275687491
 30
0.0
 11
534.4383783741957
 21
331.5000275687491
 31
0.0
  0
LINE
  5
4CA
330
1F
100
AcDbEntity
  8
7
  6
DASHDOT
 62
     4
370
     9
100
AcDbLine
 10
488.3667478138531
 20
361.0000275687493
 30
0.0
 11
488.3667478138531
 21
302.0000275687491
 31
0.0
  0
LINE
  5
4CB
330
1F
100
AcDbEntity
  8
7
  6
DASHDOT
 62
     4
370
     9
100
AcDbLine
 10
488.3667478138531
 20
233.9283970084066
 30
0.0
 11
515.2368054989419
 21
260.7984546934954
 31
0.0
  0
LINE
  5
4CC
330
1F
100
AcDbEntity
  8
7
  6
DASHDOT
 62
     4
370
     9
100
AcDbLine
 10
488.3667478138531
 20
235.4283968806213
 30
0.0
 11
488.3667478138531
 21
197.4283968806213
 31
0.0
  0
LINE
  5
4CD
330
1F
100
AcDbEntity
  8
7
  6
DASHDOT
 62
     4
370
     9
100
AcDbLine
 10
436.8667478138531
 20
257.9700275687492
 30
0.0
 11
377.8667478138531
 21
257.9700275687492
 31
0.0
  0
LINE
  5
4CE
330
1F
100
AcDbEntity
  8
7
  6
DASHDOT
 62
     4
370
     9
100
AcDbLine
 10
407.3667478138531
 20
195.9283970084066
 30
0.0
 11
407.3667478138531
 21
280.0000275687491
 31
0.0
  0
LINE
  5
4CF
330
1F
100
AcDbEntity
  8
7
  6
DASHDOT
 62
     4
370
     9
100
AcDbLine
 10
235.8361369113238
 20
267.7534059818444
 30
0.0
 11
235.8361369113238
 21
195.9283970084066
 31
0.0
  0
LINE
  5
4D0
330
1F
100
AcDbEntity
  8
7
  6
DASHDOT
 62
     4
370
     9
100
AcDbLine
 10
259.8361369113238
 20
249.4344936628168
 30
0.0
 11
211.8361369113238
 21
249.4344936628168
 31
0.0
  0
LINE
  5
4D1
330
1F
100
AcDbEntity
  8
7
  6
DASHDOT
 62
     4
370
     9
100
AcDbLine
 10
189.5861369113238
 20
313.7534059818447
 30
0.0
 11
126.5111279378863
 21
313.7534059818447
 31
0.0
  0
LINE
  5
4D2
330
1F
100
AcDbEntity
  8
7
  6
DASHDOT
 62
     4
370
     9
100
AcDbLine
 10
171.2672245922962
 20
289.7534059818446
 30
0.0
 11
171.2672245922962
 21
337.7534059818446
 31
0.0
  0
LINE
  5
4D3
330
1F
100
AcDbEntity
  8
7
  6
DASHDOT
 62
     4
370
     9
100
AcDbLine
 10
150.7611279378863
 20
289.7534059818445
 30
0.0
 11
150.7611279378863
 21
337.7534059818445
 31
0.0
  0
LINE
  5
4D4
330
1F
100
AcDbEntity
  8
7
  6
DASHDOT
 62
     4
370
     9
100
AcDbLine
 10
150.7611279378862
 20
228.9283970084068
 30
0.0
 11
174.0956517170424
 21
252.262920787563
 31
0.0
  0
LINE
  5
4D5
330
1F
100
AcDbEntity
  8
7
  6
DASHDOT
 62
     4
370
     9
100
AcDbLine
 10
150.7611279378862
 20
228.9283970084068
 30
0.0
 11
150.7611279378862
 21
195.9283970084067
 31
0.0
  0
LINE
  5
4D6
330
1F
100
AcDbEntity
  8
7
  6
DASHDOT
 62
     4
370
     9
100
AcDbLine
 10
80.26112793788627
 20
267.7534059818444
 30
0.0
 11
80.26112793788627
 21
195.9283970084066
 31
0.0
  0
LINE
  5
4D7
330
1F
100
AcDbEntity
  8
7
  6
DASHDOT
 62
     4
370
     9
100
AcDbLine
 10
56.26112793788627
 20
249.4344936628168
 30
0.0
 11
104.2611279378863
 21
249.4344936628168
 31
0.0
  0
LINE
  5
4D8
330
1F
100
AcDbEntity
  8
7
  6
DASHDOT
 62
     4
370
     9
100
AcDbLine
 10
106.6843317130545
 20
539.1109985165884
 30
0.0
 11
27.68433171305446
 21
539.1109985165884
 31
0.0
  0
LINE
  5
4D9
330
1F
100
AcDbEntity
  8
7
  6
DASHDOT
 62
     4
370
     9
100
AcDbLine
 10
67.18433171305446
 20
568.2109985165883
 30
0.0
 11
67.18433171305446
 21
463.4125137067532
 31
0.0
  0
LINE
  5
4DA
330
1F
100
AcDbEntity
  8
7
  6
DASHDOT
 62
     4
370
     9
100
AcDbLine
 10
178.1843317130548
 20
509.4125137067534
 30
0.0
 11
210.711243647636
 21
541.9394256413347
 31
0.0
  0
LINE
  5
4DB
330
1F
100
AcDbEntity
  8
7
  6
DASHDOT
 62
     4
370
     9
100
AcDbLine
 10
178.1843317130548
 20
509.4125137067534
 30
0.0
 11
178.1843317130548
 21
463.4125137067534
 31
0.0
  0
LINE
  5
4DC
330
1F
100
AcDbEntity
  8
7
  6
DASHDOT
 62
     4
370
     9
100
AcDbLine
 10
308.4828165228898
 20
568.2109985165883
 30
0.0
 11
308.4828165228898
 21
463.4125137067532
 31
0.0
  0
LINE
  5
4DD
330
1F
100
AcDbEntity
  8
7
  6
DASHDOT
 62
     4
370
     9
100
AcDbLine
 10
268.9828165228898
 20
539.1109985165884
 30
0.0
 11
347.9828165228898
 21
539.1109985165884
 31
0.0
  0
LINE
  5
4DE
330
1F
100
AcDbEntity
  8
7
  6
DASHDOT
 62
     4
370
     9
100
AcDbLine
 10
207.8828165228898
 20
679.2109985165886
 30
0.0
 11
207.8828165228898
 21
600.2109985165886
 31
0.0
  0
LINE
  5
4DF
330
1F
100
AcDbEntity
  8
7
  6
DASHDOT
 62
     4
370
     9
100
AcDbLine
 10
236.9828165228897
 20
639.7109985165886
 30
0.0
 11
138.6843317130551
 21
639.7109985165886
 31
0.0
  0
LINE
  5
4E0
330
1F
100
AcDbEntity
  8
7
  6
DASHDOT
 62
     4
370
     9
100
AcDbLine
 10
178.1843317130548
 20
679.2109985165886
 30
0.0
 11
178.1843317130548
 21
600.2109985165886
 31
0.0
  0
LINE
  5
4E1
330
1F
100
AcDbEntity
  8
7
  6
DASHDOT
 62
     4
370
     9
100
AcDbLine
 10
519.5833294666431
 20
586.3507459848944
 30
0.0
 11
519.5833294666431
 21
463.4125137067535
 31
0.0
  0
LINE
  5
4E2
330
1F
100
AcDbEntity
  8
7
  6
DASHDOT
 62
     4
370
     9
100
AcDbLine
 10
567.8333294666431
 20
551.0607459848943
 30
0.0
 11
471.3333294666431
 21
551.0607459848943
 31
0.0
  0
LINE
  5
4E3
330
1F
100
AcDbEntity
  8
7
  6
DASHDOT
 62
     4
370
     9
100
AcDbLine
 10
682.7315617447837
 20
714.6762403901947
 30
0.0
 11
682.7315617447837
 21
618.1762403901947
 31
0.0
  0
LINE
  5
4E4
330
1F
100
AcDbEntity
  8
7
  6
DASHDOT
 62
     4
370
     9
100
AcDbLine
 10
718.0215617447839
 20
666.4262403901947
 30
0.0
 11
599.8333294666429
 21
666.4262403901947
 31
0.0
  0
LINE
  5
4E5
330
1F
100
AcDbEntity
  8
7
  6
DASHDOT
 62
     4
370
     9
100
AcDbLine
 10
648.0833294666429
 20
714.6762403901947
 30
0.0
 11
648.0833294666429
 21
618.1762403901947
 31
0.0
  0
LINE
  5
4E6
330
1F
100
AcDbEntity
  8
7
  6
DASHDOT
 62
     4
370
     9
100
AcDbLine
 10
648.3739809268122
 20
516.7031651669229
 30
0.0
 11
685.6980970658826
 21
554.0272813059933
 31
0.0
  0
LINE
  5
4E7
330
1F
100
AcDbEntity
  8
7
  6
DASHDOT
 62
     4
370
     9
100
AcDbLine
 10
648.0833294666429
 20
516.4125137067535
 30
0.0
 11
648.0833294666429
 21
463.4125137067535
 31
0.0
  0
LINE
  5
4E8
330
1F
100
AcDbEntity
  8
7
  6
DASHDOT
 62
     4
370
     9
100
AcDbLine
 10
750.0215617447839
 20
551.0607459848943
 30
0.0
 11
846.5215617447839
 21
551.0607459848943
 31
0.0
  0
LINE
  5
4E9
330
1F
100
AcDbEntity
  8
7
  6
DASHDOT
 62
     4
370
     9
100
AcDbLine
 10
798.2715617447839
 20
586.3507459848944
 30
0.0
 11
798.2715617447839
 21
463.4125137067535
 31
0.0
  0
LINE
  5
4EA
330
1F
100
AcDbEntity
  8
7
  6
DASHDOT
 62
     4
370
     9
100
AcDbLine
 10
1116.776382878218
 20
559.5962798908271
 30
0.0
 11
1006.776382878218
 21
559.5962798908271
 31
0.0
  0
LINE
  5
4EB
330
1F
100
AcDbEntity
  8
7
  6
DASHDOT
 62
     4
370
     9
100
AcDbLine
 10
1061.776382878218
 20
599.6562798908271
 30
0.0
 11
1061.776382878218
 21
463.4125137067535
 31
0.0
  0
LINE
  5
4EC
330
1F
100
AcDbEntity
  8
7
  6
DASHDOT
 62
     4
370
     9
100
AcDbLine
 10
1203.776382878218
 20
521.4125137067535
 30
0.0
 11
1203.776382878218
 21
463.4125137067535
 31
0.0
  0
LINE
  5
4ED
330
1F
100
AcDbEntity
  8
7
  6
DASHDOT
 62
     4
370
     9
100
AcDbLine
 10
1203.776382878218
 20
521.4125137067535
 30
0.0
 11
1244.788576187038
 21
562.4247070155733
 31
0.0
  0
LINE
  5
4EE
330
1F
100
AcDbEntity
  8
7
  6
DASHDOT
 62
     4
370
     9
100
AcDbLine
 10
1282.020149062291
 20
686.656279890827
 30
0.0
 11
1148.776382878218
 21
686.656279890827
 31
0.0
  0
LINE
  5
4EF
330
1F
100
AcDbEntity
  8
7
  6
DASHDOT
 62
     4
370
     9
100
AcDbLine
 10
1203.776382878218
 20
741.656279890827
 30
0.0
 11
1203.776382878218
 21
631.656279890827
 31
0.0
  0
LINE
  5
4F0
330
1F
100
AcDbEntity
  8
7
  6
DASHDOT
 62
     4
370
     9
100
AcDbLine
 10
1241.960149062292
 20
741.656279890827
 30
0.0
 11
1241.960149062292
 21
631.656279890827
 31
0.0
  0
LINE
  5
4F1
330
1F
100
AcDbEntity
  8
7
  6
DASHDOT
 62
     4
370
     9
100
AcDbLine
 10
1369.020149062291
 20
599.6562798908271
 30
0.0
 11
1369.020149062291
 21
463.4125137067535
 31
0.0
  0
LINE
  5
4F2
330
1F
100
AcDbEntity
  8
7
  6
DASHDOT
 62
     4
370
     9
100
AcDbLine
 10
1314.020149062291
 20
559.5962798908271
 30
0.0
 11
1424.020149062291
 21
559.5962798908271
 31
0.0
  0
LINE
  5
4F3
330
1F
100
AcDbEntity
  8
7
  6
DASHDOT
 62
     4
370
     9
100
AcDbLine
 10
317.7599721761537
 20
867.9370886323662
 30
0.0
 11
317.7599721761537
 21
799.9370886323662
 31
0.0
  0
LINE
  5
4F4
330
1F
100
AcDbEntity
  8
7
  6
DASHDOT
 62
     4
370
     9
100
AcDbLine
 10
317.7599721761537
 20
867.9370886323662
 30
0.0
 11
365.8432332968389
 21
916.0203497530515
 31
0.0
  0
LINE
  5
4F5
330
1F
100
AcDbEntity
  8
7
  6
DASHDOT
 62
     4
370
     9
100
AcDbLine
 10
523.9748061720927
 20
963.1519226283053
 30
0.0
 11
523.9748061720927
 21
799.9370886323662
 31
0.0
  0
LINE
  5
4F6
330
1F
100
AcDbEntity
  8
7
  6
DASHDOT
 62
     4
370
     9
100
AcDbLine
 10
454.9748061720927
 20
913.1919226283053
 30
0.0
 11
592.9748061720927
 21
913.1919226283053
 31
0.0
  0
LINE
  5
4F7
330
1F
100
AcDbEntity
  8
7
  6
DASHDOT
 62
     4
370
     9
100
AcDbLine
 10
363.0148061720927
 20
1143.151922628305
 30
0.0
 11
363.0148061720927
 21
1005.151922628305
 31
0.0
  0
LINE
  5
4F8
330
1F
100
AcDbEntity
  8
7
  6
DASHDOT
 62
     4
370
     9
100
AcDbLine
 10
412.9748061720927
 20
1074.151922628305
 30
0.0
 11
248.7599721761537
 21
1074.151922628305
 31
0.0
  0
LINE
  5
4F9
330
1F
100
AcDbEntity
  8
7
  6
DASHDOT
 62
     4
370
     9
100
AcDbLine
 10
317.7599721761537
 20
1143.151922628305
 30
0.0
 11
317.7599721761537
 21
1005.151922628305
 31
0.0
  0
MTEXT
  5
4FA
330
1F
100
AcDbEntity
  8
1
  6
Continuous
 62
     7
370
     9
100
AcDbMText
 10
411.6796850610962
 20
962.0975984912964
 30
0.0
 40
20.0
 41
61.99529529529529
 46
20.0
 71
     7
 72
     1
  1
{\fＭＳ 明朝;\T0.750000;100A}
 73
     1
 44
1.0
1001
ACAD
1000
ACAD_MTEXT_DEFINED_HEIGHT_BEGIN
1070
    46
1040
20.0
1000
ACAD_MTEXT_DEFINED_HEIGHT_END
  0
MTEXT
  5
4FB
330
1F
100
AcDbEntity
  8
1
  6
Continuous
 62
     7
370
     9
100
AcDbMText
 10
178.0100399753686
 20
432.4559567847899
 30
0.0
 40
15.0
 41
36.51276276276276
 46
15.0
 71
     8
 72
     1
  1
{\fＭＳ 明朝;\T0.750000;50A}
 73
     1
 44
1.0
1001
ACAD
1000
ACAD_MTEXT_DEFINED_HEIGHT_BEGIN
1070
    46
1040
15.0
1000
ACAD_MTEXT_DEFINED_HEIGHT_END
  0
MTEXT
  5
4FC
330
1F
100
AcDbEntity
  8
1
  6
Continuous
 62
     7
370
     9
100
AcDbMText
 10
647.9127145524852
 20
432.4559567847899
 30
0.0
 40
15.0
 41
36.87522522522522
 46
15.0
 71
     8
 72
     1
  1
{\fＭＳ 明朝;\T0.750000;65A}
 73
     1
 44
1.0
1001
ACAD
1000
ACAD_MTEXT_DEFINED_HEIGHT_BEGIN
1070
    46
1040
15.0
1000
ACAD_MTEXT_DEFINED_HEIGHT_END
  0
MTEXT
  5
4FD
330
1F
100
AcDbEntity
  8
1
  6
Continuous
 62
     7
370
     9
100
AcDbMText
 10
1203.129666340976
 20
432.4559567847899
 30
0.0
 40
15.0
 41
37.00315315315315
 46
15.0
 71
     8
 72
     1
  1
{\fＭＳ 明朝;\T0.750000;80A}
 73
     1
 44
1.0
1001
ACAD
1000
ACAD_MTEXT_DEFINED_HEIGHT_BEGIN
1070
    46
1040
15.0
1000
ACAD_MTEXT_DEFINED_HEIGHT_END
  0
MTEXT
  5
4FE
330
1F
100
AcDbEntity
  8
1
  6
Continuous
 62
     7
370
     9
100
AcDbMText
 10
150.5838452477221
 20
165.7692851900925
 30
0.0
 40
15.0
 41
36.76861861861862
 46
15.0
 71
     8
 72
     1
  1
{\fＭＳ 明朝;\T0.750000;25A}
 73
     1
 44
1.0
1001
ACAD
1000
ACAD_MTEXT_DEFINED_HEIGHT_BEGIN
1070
    46
1040
15.0
1000
ACAD_MTEXT_DEFINED_HEIGHT_END
  0
MTEXT
  5
4FF
330
1F
100
AcDbEntity
  8
1
  6
Continuous
 62
     7
370
     9
100
AcDbMText
 10
488.5146096046138
 20
165.7692851900925
 30
0.0
 40
15.0
 41
36.51276276276276
 46
15.0
 71
     8
 72
     1
  1
{\fＭＳ 明朝;\T0.750000;32A}
 73
     1
 44
1.0
1001
ACAD
1000
ACAD_MTEXT_DEFINED_HEIGHT_BEGIN
1070
    46
1040
15.0
1000
ACAD_MTEXT_DEFINED_HEIGHT_END
  0
MTEXT
  5
500
330
1F
100
AcDbEntity
  8
1
  6
Continuous
 62
     7
370
     9
100
AcDbMText
 10
865.9739725445363
 20
165.7692851900925
 30
0.0
 40
15.0
 41
37.25900900900901
 46
15.0
 71
     8
 72
     1
  1
{\fＭＳ 明朝;\T0.750000;40A}
 73
     1
 44
1.0
1001
ACAD
1000
ACAD_MTEXT_DEFINED_HEIGHT_BEGIN
1070
    46
1040
15.0
1000
ACAD_MTEXT_DEFINED_HEIGHT_END
  0
MTEXT
  5
501
330
1F
100
AcDbEntity
  8
1
  6
Continuous
 62
     7
370
     9
100
AcDbMText
 10
87.67798825023715
 20
20.30899424423077
 30
0.0
 40
15.0
 41
25.18581081081081
 46
15.0
 71
     8
 72
     1
  1
{\fＭＳ 明朝;\T0.750000;6A}
 73
     1
 44
1.0
1001
ACAD
1000
ACAD_MTEXT_DEFINED_HEIGHT_BEGIN
1070
    46
1040
15.0
1000
ACAD_MTEXT_DEFINED_HEIGHT_END
  0
MTEXT
  5
502
330
1F
100
AcDbEntity
  8
1
  6
Continuous
 62
     7
370
     9
100
AcDbMText
 10
301.8558197883589
 20
20.30899424423077
 30
0.0
 40
15.0
 41
25.31373873873873
 46
15.0
 71
     8
 72
     1
  1
{\fＭＳ 明朝;\T0.750000;8A}
 73
     1
 44
1.0
1001
ACAD
1000
ACAD_MTEXT_DEFINED_HEIGHT_BEGIN
1070
    46
1040
15.0
1000
ACAD_MTEXT_DEFINED_HEIGHT_END
  0
MTEXT
  5
503
330
1F
100
AcDbEntity
  8
1
  6
Continuous
 62
     7
370
     9
100
AcDbMText
 10
535.4104153377702
 20
20.30899424423077
 30
0.0
 40
15.0
 41
34.80705705705705
 46
15.0
 71
     8
 72
     1
  1
{\fＭＳ 明朝;\T0.750000;10A}
 73
     1
 44
1.0
1001
ACAD
1000
ACAD_MTEXT_DEFINED_HEIGHT_BEGIN
1070
    46
1040
15.0
1000
ACAD_MTEXT_DEFINED_HEIGHT_END
  0
MTEXT
  5
504
330
1F
100
AcDbEntity
  8
1
  6
Continuous
 62
     7
370
     9
100
AcDbMText
 10
788.600131751955
 20
20.30899424423077
 30
0.0
 40
15.0
 41
34.80705705705705
 46
15.0
 71
     8
 72
     1
  1
{\fＭＳ 明朝;\T0.750000;15A}
 73
     1
 44
1.0
1001
ACAD
1000
ACAD_MTEXT_DEFINED_HEIGHT_BEGIN
1070
    46
1040
15.0
1000
ACAD_MTEXT_DEFINED_HEIGHT_END
  0
MTEXT
  5
505
330
1F
100
AcDbEntity
  8
1
  6
Continuous
 62
     7
370
     9
100
AcDbMText
 10
1049.282196917172
 20
20.30899424423077
 30
0.0
 40
15.0
 41
36.76861861861862
 46
15.0
 71
     8
 72
     1
  1
{\fＭＳ 明朝;\T0.750000;20A}
 73
     1
 44
1.0
1001
ACAD
1000
ACAD_MTEXT_DEFINED_HEIGHT_BEGIN
1070
    46
1040
15.0
1000
ACAD_MTEXT_DEFINED_HEIGHT_END
  0
VIEWPORT
  5
3F
330
1B
100
AcDbEntity
 67
     1
  8
0
100
AcDbViewport
 10
594.5
 20
420.5
 30
0.0
 40
1189.0
 41
841.0
 68
     1
 69
     1
 12
594.5
 22
420.5
 13
0.0
 23
0.0
 14
0.5
 24
0.5
 15
0.5
 25
0.5
 16
0.0
 26
0.0
 36
1.0
 17
0.0
 27
0.0
 37
0.0
 42
50.0
 43
0.0
 44
0.0
 45
9.0
 50
0.0
 51
0.0
 72
   100
 90
   557152
  1

281
     0
 71
     1
 74
     0
110
0.0
120
0.0
130
0.0
111
1.0
121
0.0
131
0.0
112
0.0
122
1.0
132
0.0
 79
     0
146
0.0
170
     0
 61
     5
292
     1
282
     1
141
0.0
142
0.0
 63
   256
  0
ENDSEC
  0
SECTION
  2
OBJECTS
  0
DICTIONARY
  5
C
330
0
100
AcDbDictionary
281
     1
  3
ACAD_GROUP
350
D
  3
ACAD_LAYOUT
350
1A
  3
ACAD_MATERIAL
350
3B
  3
ACAD_MLEADERSTYLE
350
527
  3
ACAD_MLINESTYLE
350
17
  3
ACAD_PLOTSETTINGS
350
19
  3
ACAD_PLOTSTYLENAME
350
E
  3
ACAD_TABLESTYLE
350
526
  3
ACAD_VISUALSTYLE
350
2A
  0
DICTIONARY
  5
D
102
{ACAD_REACTORS
330
C
102
}
330
C
100
AcDbDictionary
281
     1
  0
DICTIONARY
  5
1A
102
{ACAD_REACTORS
330
C
102
}
330
C
100
AcDbDictionary
281
     1
  3
Layout1
350
1E
  3
Layout2
350
26
  3
Model
350
22
  0
DICTIONARY
  5
3B
102
{ACAD_REACTORS
330
C
102
}
330
C
100
AcDbDictionary
281
     1
  3
ByBlock
350
3D
  3
ByLayer
350
3C
  3
Global
350
3E
  0
DICTIONARY
  5
527
102
{ACAD_REACTORS
330
C
102
}
330
C
100
AcDbDictionary
281
     1
  0
DICTIONARY
  5
17
102
{ACAD_REACTORS
330
C
102
}
330
C
100
AcDbDictionary
281
     1
  3
Standard
350
18
  0
DICTIONARY
  5
19
102
{ACAD_REACTORS
330
C
102
}
330
C
100
AcDbDictionary
281
     1
  0
ACDBDICTIONARYWDFLT
  5
E
102
{ACAD_REACTORS
330
C
102
}
330
C
100
AcDbDictionary
281
     1
  3
Normal
350
F
100
AcDbDictionaryWithDefault
340
F
  0
DICTIONARY
  5
526
102
{ACAD_REACTORS
330
C
102
}
330
C
100
AcDbDictionary
281
     1
  0
DICTIONARY
  5
2A
102
{ACAD_REACTORS
330
C
102
}
330
C
100
AcDbDictionary
281
     1
  3
2dWireframe
350
2F
  3
3D Hidden
350
31
  3
3dWireframe
350
30
  3
Basic
350
32
  3
Brighten
350
36
  3
ColorChange
350
3A
  3
Conceptual
350
34
  3
Dim
350
35
  3
Facepattern
350
39
  3
Flat
350
2B
  3
FlatWithEdges
350
2C
  3
Gouraud
350
2D
  3
GouraudWithEdges
350
2E
  3
Linepattern
350
38
  3
Realistic
350
33
  3
Thicken
350
37
  0
LAYOUT
  5
1E
102
{ACAD_REACTORS
330
1A
102
}
330
1A
100
AcDbPlotSettings
  1

  2
none_device
  4

  6

 40
0.0
 41
0.0
 42
0.0
 43
0.0
 44
0.0
 45
0.0
 46
0.0
 47
0.0
 48
0.0
 49
0.0
140
0.0
141
0.0
142
1.0
143
1.0
 70
   688
 72
     0
 73
     0
 74
     5
  7

 75
    16
 76
     0
 77
     2
 78
   300
147
1.0
148
0.0
149
0.0
100
AcDbLayout
  1
Layout1
 70
     1
 71
     1
 10
0.0
 20
0.0
 11
1189.0
 21
841.0
 12
0.0
 22
0.0
 32
0.0
 14
0.0
 24
0.0
 34
0.0
 15
1189.0
 25
841.0
 35
0.0
146
0.0
 13
0.0
 23
0.0
 33
0.0
 16
1.0
 26
0.0
 36
0.0
 17
0.0
 27
1.0
 37
0.0
 76
     0
330
1B
331
3F
  0
LAYOUT
  5
26
102
{ACAD_REACTORS
330
1A
102
}
330
1A
100
AcDbPlotSettings
  1

  2
none_device
  4

  6

 40
0.0
 41
0.0
 42
0.0
 43
0.0
 44
0.0
 45
0.0
 46
0.0
 47
0.0
 48
0.0
 49
0.0
140
0.0
141
0.0
142
1.0
143
1.0
 70
   688
 72
     0
 73
     0
 74
     5
  7

 75
    16
 76
     0
 77
     2
 78
   300
147
1.0
148
0.0
149
0.0
100
AcDbLayout
  1
Layout2
 70
     1
 71
     2
 10
0.0
 20
0.0
 11
0.0
 21
0.0
 12
0.0
 22
0.0
 32
0.0
 14
0.0
 24
0.0
 34
0.0
 15
0.0
 25
0.0
 35
0.0
146
0.0
 13
0.0
 23
0.0
 33
0.0
 16
1.0
 26
0.0
 36
0.0
 17
0.0
 27
1.0
 37
0.0
 76
     0
330
23
  0
LAYOUT
  5
22
102
{ACAD_REACTORS
330
1A
102
}
330
1A
100
AcDbPlotSettings
  1

  2
none_device
  4

  6

 40
0.0
 41
0.0
 42
0.0
 43
0.0
 44
0.0
 45
0.0
 46
0.0
 47
0.0
 48
0.0
 49
0.0
140
0.0
141
0.0
142
1.0
143
1.0
 70
  1712
 72
     0
 73
     0
 74
     0
  7

 75
     0
 76
     0
 77
     2
 78
   300
147
1.0
148
0.0
149
0.0
100
AcDbLayout
  1
Model
 70
     1
 71
     0
 10
0.0
 20
0.0
 11
1189.0
 21
841.0
 12
0.0
 22
0.0
 32
0.0
 14
27.68433171305446
 24
20.30899424423077
 34
0.0
 15
1424.020149062291
 25
1143.151922628305
 35
0.0
146
0.0
 13
0.0
 23
0.0
 33
0.0
 16
1.0
 26
0.0
 36
0.0
 17
0.0
 27
1.0
 37
0.0
 76
     0
330
1F
331
29
  0
MATERIAL
  5
3D
102
{ACAD_REACTORS
330
3B
102
}
330
3B
100
AcDbMaterial
  1
ByBlock
 72
     1
 94
      127
  0
MATERIAL
  5
3C
102
{ACAD_REACTORS
330
3B
102
}
330
3B
100
AcDbMaterial
  1
ByLayer
 72
     1
 94
      127
  0
MATERIAL
  5
3E
102
{ACAD_REACTORS
330
3B
102
}
330
3B
100
AcDbMaterial
  1
Global
 72
     1
 94
      127
  0
MLINESTYLE
  5
18
102
{ACAD_REACTORS
330
17
102
}
330
17
100
AcDbMlineStyle
  2
Standard
 70
     0
  3

 62
   256
 51
90.0
 52
90.0
 71
     2
 49
0.5
 62
   256
  6
BYLAYER
 49
-0.5
 62
   256
  6
BYLAYER
  0
ACDBPLACEHOLDER
  5
F
102
{ACAD_REACTORS
330
E
102
}
330
E
  0
VISUALSTYLE
  5
2F
102
{ACAD_REACTORS
330
2A
102
}
102
{ACAD_XDICTIONARY
360
50E
102
}
330
2A
100
AcDbVisualStyle
  2
2dWireframe
 70
     4
 71
     0
 72
     2
 73
     0
 90
        0
 40
-0.6
 41
-30.0
 62
     5
 63
     7
421
 16777215
 74
     1
 91
        4
 64
     7
 65
   257
 75
     1
175
     1
 42
1.0
 92
        0
 66
   257
 43
1.0
 76
     1
 77
     6
 78
     2
 67
     7
 79
     5
170
     0
171
     0
290
     0
174
     0
 93
        1
 44
0.0
173
     0
291
     0
 45
0.0
  0
VISUALSTYLE
  5
31
102
{ACAD_REACTORS
330
2A
102
}
102
{ACAD_XDICTIONARY
360
512
102
}
330
2A
100
AcDbVisualStyle
  2
3D Hidden
 70
     6
 71
     1
 72
     2
 73
     2
 90
        0
 40
-0.6
 41
-30.0
 62
     5
 63
     7
421
 16777215
 74
     2
 91
        2
 64
     7
 65
   257
 75
     2
175
     1
 42
40.0
 92
        0
 66
   257
 43
1.0
 76
     1
 77
     6
 78
     2
 67
     7
 79
     3
170
     0
171
     0
290
     0
174
     0
 93
        1
 44
0.0
173
     0
291
     0
 45
0.0
  0
VISUALSTYLE
  5
30
102
{ACAD_REACTORS
330
2A
102
}
102
{ACAD_XDICTIONARY
360
510
102
}
330
2A
100
AcDbVisualStyle
  2
3dWireframe
 70
     5
 71
     0
 72
     2
 73
     0
 90
        0
 40
-0.6
 41
-30.0
 62
     5
 63
     7
421
 16777215
 74
     1
 91
        4
 64
     7
 65
   257
 75
     1
175
     1
 42
1.0
 92
        0
 66
   257
 43
1.0
 76
     1
 77
     6
 78
     2
 67
     7
 79
     5
170
     0
171
     0
290
     0
174
     0
 93
        1
 44
0.0
173
     0
291
     0
 45
0.0
  0
VISUALSTYLE
  5
32
102
{ACAD_REACTORS
330
2A
102
}
102
{ACAD_XDICTIONARY
360
514
102
}
330
2A
100
AcDbVisualStyle
  2
Basic
 70
     7
 71
     1
 72
     0
 73
     1
 90
        0
 40
-0.6
 41
-30.0
 62
     5
 63
     7
421
 16777215
 74
     0
 91
        4
 64
     7
 65
   257
 75
     1
175
     1
 42
1.0
 92
        8
 66
     7
 43
1.0
 76
     1
 77
     6
 78
     2
 67
     7
 79
     5
170
     0
171
     0
290
     0
174
     0
 93
        1
 44
0.0
173
     0
291
     1
 45
0.0
  0
VISUALSTYLE
  5
36
102
{ACAD_REACTORS
330
2A
102
}
102
{ACAD_XDICTIONARY
360
51C
102
}
330
2A
100
AcDbVisualStyle
  2
Brighten
 70
    12
 71
     2
 72
     2
 73
     0
 90
        0
 40
-0.6
 41
-30.0
 62
     5
 63
     7
421
 16777215
 74
     1
 91
        4
 64
     7
 65
   257
 75
     1
175
     1
 42
1.0
 92
        8
 66
     7
 43
1.0
 76
     1
 77
     6
 78
     2
 67
     7
 79
     5
170
     0
171
     0
290
     0
174
     0
 93
        1
 44
50.0
173
     0
291
     1
 45
0.0
  0
VISUALSTYLE
  5
3A
102
{ACAD_REACTORS
330
2A
102
}
102
{ACAD_XDICTIONARY
360
524
102
}
330
2A
100
AcDbVisualStyle
  2
ColorChange
 70
    16
 71
     2
 72
     2
 73
     3
 90
        0
 40
-0.6
 41
-30.0
 62
     5
 63
     8
421
  8421504
 74
     1
 91
        4
 64
     7
 65
   257
 75
     1
175
     1
 42
1.0
 92
        8
 66
     8
424
  8421504
 43
1.0
 76
     1
 77
     6
 78
     2
 67
     7
 79
     5
170
     0
171
     0
290
     0
174
     0
 93
        1
 44
0.0
173
     0
291
     1
 45
0.0
  0
VISUALSTYLE
  5
34
102
{ACAD_REACTORS
330
2A
102
}
102
{ACAD_XDICTIONARY
360
518
102
}
330
2A
100
AcDbVisualStyle
  2
Conceptual
 70
     9
 71
     3
 72
     2
 73
     0
 90
        0
 40
-0.6
 41
-30.0
 62
     5
 63
     7
421
 16777215
 74
     2
 91
        2
 64
     7
 65
   257
 75
     1
175
     1
 42
40.0
 92
        8
 66
     7
 43
1.0
 76
     1
 77
     6
 78
     2
 67
     7
 79
     3
170
     0
171
     0
290
     0
174
     0
 93
        1
 44
0.0
173
     0
291
     0
 45
0.0
  0
VISUALSTYLE
  5
35
102
{ACAD_REACTORS
330
2A
102
}
102
{ACAD_XDICTIONARY
360
51A
102
}
330
2A
100
AcDbVisualStyle
  2
Dim
 70
    11
 71
     2
 72
     2
 73
     0
 90
        0
 40
-0.6
 41
-30.0
 62
     5
 63
     7
421
 16777215
 74
     1
 91
        4
 64
     7
 65
   257
 75
     1
175
     1
 42
1.0
 92
        8
 66
     7
 43
1.0
 76
     1
 77
     6
 78
     2
 67
     7
 79
     5
170
     0
171
     0
290
     0
174
     0
 93
        1
 44
-50.0
173
     0
291
     1
 45
0.0
  0
VISUALSTYLE
  5
39
102
{ACAD_REACTORS
330
2A
102
}
102
{ACAD_XDICTIONARY
360
522
102
}
330
2A
100
AcDbVisualStyle
  2
Facepattern
 70
    15
 71
     2
 72
     2
 73
     0
 90
        0
 40
-0.6
 41
-30.0
 62
     5
 63
     7
421
 16777215
 74
     1
 91
        4
 64
     7
 65
   257
 75
     1
175
     1
 42
1.0
 92
        8
 66
     7
 43
1.0
 76
     1
 77
     6
 78
     2
 67
     7
 79
     5
170
     0
171
     0
290
     0
174
     0
 93
        1
 44
0.0
173
     0
291
     1
 45
0.0
  0
VISUALSTYLE
  5
2B
102
{ACAD_REACTORS
330
2A
102
}
102
{ACAD_XDICTIONARY
360
506
102
}
330
2A
100
AcDbVisualStyle
  2
Flat
 70
     0
 71
     2
 72
     1
 73
     1
 90
        2
 40
-0.6
 41
30.0
 62
     5
 63
     7
421
 16777215
 74
     0
 91
        4
 64
     7
 65
   257
 75
     1
175
     1
 42
1.0
 92
        8
 66
     7
 43
1.0
 76
     1
 77
     6
 78
     2
 67
     7
 79
     5
170
     0
171
     0
290
     0
174
     0
 93
       13
 44
0.0
173
     0
291
     1
 45
0.0
  0
VISUALSTYLE
  5
2C
102
{ACAD_REACTORS
330
2A
102
}
102
{ACAD_XDICTIONARY
360
508
102
}
330
2A
100
AcDbVisualStyle
  2
FlatWithEdges
 70
     1
 71
     2
 72
     1
 73
     1
 90
        2
 40
-0.6
 41
30.0
 62
     5
 63
     7
421
 16777215
 74
     1
 91
        4
 64
     7
 65
   257
 75
     1
175
     1
 42
1.0
 92
        0
 66
   257
 43
1.0
 76
     1
 77
     6
 78
     2
 67
     7
 79
     5
170
     0
171
     0
290
     0
174
     0
 93
       13
 44
0.0
173
     0
291
     1
 45
0.0
  0
VISUALSTYLE
  5
2D
102
{ACAD_REACTORS
330
2A
102
}
102
{ACAD_XDICTIONARY
360
50A
102
}
330
2A
100
AcDbVisualStyle
  2
Gouraud
 70
     2
 71
     2
 72
     2
 73
     1
 90
        2
 40
-0.6
 41
30.0
 62
     5
 63
     7
421
 16777215
 74
     0
 91
        4
 64
     7
 65
   257
 75
     1
175
     1
 42
1.0
 92
        0
 66
     7
 43
1.0
 76
     1
 77
     6
 78
     2
 67
     7
 79
     5
170
     0
171
     0
290
     0
174
     0
 93
       13
 44
0.0
173
     0
291
     1
 45
0.0
  0
VISUALSTYLE
  5
2E
102
{ACAD_REACTORS
330
2A
102
}
102
{ACAD_XDICTIONARY
360
50C
102
}
330
2A
100
AcDbVisualStyle
  2
GouraudWithEdges
 70
     3
 71
     2
 72
     2
 73
     1
 90
        2
 40
-0.6
 41
30.0
 62
     5
 63
     7
421
 16777215
 74
     1
 91
        4
 64
     7
 65
   257
 75
     1
175
     1
 42
1.0
 92
        0
 66
   257
 43
1.0
 76
     1
 77
     6
 78
     2
 67
     7
 79
     5
170
     0
171
     0
290
     0
174
     0
 93
       13
 44
0.0
173
     0
291
     1
 45
0.0
  0
VISUALSTYLE
  5
38
102
{ACAD_REACTORS
330
2A
102
}
102
{ACAD_XDICTIONARY
360
520
102
}
330
2A
100
AcDbVisualStyle
  2
Linepattern
 70
    14
 71
     2
 72
     2
 73
     0
 90
        0
 40
-0.6
 41
-30.0
 62
     5
 63
     7
421
 16777215
 74
     1
 91
        4
 64
     7
 65
   257
 75
     7
175
     7
 42
1.0
 92
        8
 66
     7
 43
1.0
 76
     1
 77
     6
 78
     2
 67
     7
 79
     5
170
     0
171
     0
290
     0
174
     0
 93
        1
 44
0.0
173
     0
291
     1
 45
0.0
  0
VISUALSTYLE
  5
33
102
{ACAD_REACTORS
330
2A
102
}
102
{ACAD_XDICTIONARY
360
516
102
}
330
2A
100
AcDbVisualStyle
  2
Realistic
 70
     8
 71
     2
 72
     2
 73
     0
 90
        0
 40
-0.6
 41
-30.0
 62
     5
 63
     7
421
 16777215
 74
     1
 91
        0
 64
     7
 65
   257
 75
     1
175
     1
 42
1.0
 92
        8
 66
     8
424
  7895160
 43
1.0
 76
     1
 77
     6
 78
     2
 67
     7
 79
     5
170
     0
171
     0
290
     0
174
     0
 93
       13
 44
0.0
173
     0
291
     0
 45
0.0
  0
VISUALSTYLE
  5
37
102
{ACAD_REACTORS
330
2A
102
}
102
{ACAD_XDICTIONARY
360
51E
102
}
330
2A
100
AcDbVisualStyle
  2
Thicken
 70
    13
 71
     2
 72
     2
 73
     0
 90
        0
 40
-0.6
 41
-30.0
 62
     5
 63
     7
421
 16777215
 74
     1
 91
        4
 64
     7
 65
   257
 75
     1
175
     1
 42
1.0
 92
       12
 66
     7
 43
1.0
 76
     1
 77
     6
 78
     2
 67
     7
 79
     5
170
     0
171
     0
290
     0
174
     0
 93
        1
 44
0.0
173
     0
291
     1
 45
0.0
  0
DICTIONARY
  5
50E
330
2F
100
AcDbDictionary
280
     1
281
     1
  3
ACAD_XREC_ROUNDTRIP
360
50F
  0
DICTIONARY
  5
512
330
31
100
AcDbDictionary
280
     1
281
     1
  3
ACAD_XREC_ROUNDTRIP
360
513
  0
DICTIONARY
  5
510
330
30
100
AcDbDictionary
280
     1
281
     1
  3
ACAD_XREC_ROUNDTRIP
360
511
  0
DICTIONARY
  5
514
330
32
100
AcDbDictionary
280
     1
281
     1
  3
ACAD_XREC_ROUNDTRIP
360
515
  0
DICTIONARY
  5
51C
330
36
100
AcDbDictionary
280
     1
281
     1
  3
ACAD_XREC_ROUNDTRIP
360
51D
  0
DICTIONARY
  5
524
330
3A
100
AcDbDictionary
280
     1
281
     1
  3
ACAD_XREC_ROUNDTRIP
360
525
  0
DICTIONARY
  5
518
330
34
100
AcDbDictionary
280
     1
281
     1
  3
ACAD_XREC_ROUNDTRIP
360
519
  0
DICTIONARY
  5
51A
330
35
100
AcDbDictionary
280
     1
281
     1
  3
ACAD_XREC_ROUNDTRIP
360
51B
  0
DICTIONARY
  5
522
330
39
100
AcDbDictionary
280
     1
281
     1
  3
ACAD_XREC_ROUNDTRIP
360
523
  0
DICTIONARY
  5
506
330
2B
100
AcDbDictionary
280
     1
281
     1
  3
ACAD_XREC_ROUNDTRIP
360
507
  0
DICTIONARY
  5
508
330
2C
100
AcDbDictionary
280
     1
281
     1
  3
ACAD_XREC_ROUNDTRIP
360
509
  0
DICTIONARY
  5
50A
330
2D
100
AcDbDictionary
280
     1
281
     1
  3
ACAD_XREC_ROUNDTRIP
360
50B
  0
DICTIONARY
  5
50C
330
2E
100
AcDbDictionary
280
     1
281
     1
  3
ACAD_XREC_ROUNDTRIP
360
50D
  0
DICTIONARY
  5
520
330
38
100
AcDbDictionary
280
     1
281
     1
  3
ACAD_XREC_ROUNDTRIP
360
521
  0
DICTIONARY
  5
516
330
33
100
AcDbDictionary
280
     1
281
     1
  3
ACAD_XREC_ROUNDTRIP
360
517
  0
DICTIONARY
  5
51E
330
37
100
AcDbDictionary
280
     1
281
     1
  3
ACAD_XREC_ROUNDTRIP
360
51F
  0
XRECORD
  5
50F
102
{ACAD_REACTORS
330
50E
102
}
330
50E
100
AcDbXrecord
280
     1
102
RTVSPropertyOp0
 70
     1
102
RTVSPropertyOp1
 70
     1
102
RTVSPropertyOp2
 70
     1
102
RTVSPropertyOp3
 70
     1
102
RTVSPropertyOp4
 70
     1
102
RTVSPropertyOp5
 70
     1
102
RTVSPropertyOp6
 70
     1
102
RTVSPropertyOp7
 70
     1
102
RTVSPropertyOp8
 70
     1
102
RTVSPropertyOp9
 70
     1
102
RTVSPropertyOp10
 70
     1
102
RTVSPropertyOp11
 70
     1
102
RTVSPropertyOp12
 70
     1
102
RTVSPropertyOp13
 70
     1
102
RTVSPropertyOp14
 70
     1
102
RTVSPropertyOp15
 70
     1
102
RTVSPropertyOp16
 70
     1
102
RTVSPropertyOp17
 70
     1
102
RTVSPropertyOp18
 70
     1
102
RTVSPropertyOp19
 70
     1
102
RTVSPropertyOp20
 70
     1
102
RTVSPropertyOp21
 70
     1
102
RTVSPropertyOp22
 70
     1
102
RTVSPropertyOp23
 70
     1
102
RTVSPropertyOp24
 70
     1
102
RTVSPropertyOp25
 70
     1
102
RTVSPropertyOp26
 70
     1
102
RTVSPropertyOp27
 70
     1
102
RTVSPropertyOp28
 70
     1
102
RTVSPropertyOp29
 70
     1
102
RTVSPropertyOp30
 70
     1
102
RTVSPropertyOp31
 70
     1
102
RTVSPropertyOp32
 70
     1
  0
XRECORD
  5
513
102
{ACAD_REACTORS
330
512
102
}
330
512
100
AcDbXrecord
280
     1
102
RTVSPropertyOp0
 70
     1
102
RTVSPropertyOp1
 70
     1
102
RTVSPropertyOp2
 70
     1
102
RTVSPropertyOp3
 70
     1
102
RTVSPropertyOp4
 70
     1
102
RTVSPropertyOp5
 70
     1
102
RTVSPropertyOp6
 70
     1
102
RTVSPropertyOp7
 70
     1
102
RTVSPropertyOp8
 70
     1
102
RTVSPropertyOp9
 70
     1
102
RTVSPropertyOp10
 70
     1
102
RTVSPropertyOp11
 70
     1
102
RTVSPropertyOp12
 70
     1
102
RTVSPropertyOp13
 70
     1
102
RTVSPropertyOp14
 70
     1
102
RTVSPropertyOp15
 70
     1
102
RTVSPropertyOp16
 70
     1
102
RTVSPropertyOp17
 70
     1
102
RTVSPropertyOp18
 70
     1
102
RTVSPropertyOp19
 70
     1
102
RTVSPropertyOp20
 70
     1
102
RTVSPropertyOp21
 70
     1
102
RTVSPropertyOp22
 70
     1
102
RTVSPropertyOp23
 70
     1
102
RTVSPropertyOp24
 70
     1
102
RTVSPropertyOp25
 70
     1
102
RTVSPropertyOp26
 70
     1
102
RTVSPropertyOp27
 70
     1
102
RTVSPropertyOp28
 70
     1
102
RTVSPropertyOp29
 70
     1
102
RTVSPropertyOp30
 70
     1
102
RTVSPropertyOp31
 70
     1
102
RTVSPropertyOp32
 70
     1
  0
XRECORD
  5
511
102
{ACAD_REACTORS
330
510
102
}
330
510
100
AcDbXrecord
280
     1
102
RTVSPropertyOp0
 70
     1
102
RTVSPropertyOp1
 70
     1
102
RTVSPropertyOp2
 70
     1
102
RTVSPropertyOp3
 70
     1
102
RTVSPropertyOp4
 70
     1
102
RTVSPropertyOp5
 70
     1
102
RTVSPropertyOp6
 70
     1
102
RTVSPropertyOp7
 70
     1
102
RTVSPropertyOp8
 70
     1
102
RTVSPropertyOp9
 70
     1
102
RTVSPropertyOp10
 70
     1
102
RTVSPropertyOp11
 70
     1
102
RTVSPropertyOp12
 70
     1
102
RTVSPropertyOp13
 70
     1
102
RTVSPropertyOp14
 70
     1
102
RTVSPropertyOp15
 70
     1
102
RTVSPropertyOp16
 70
     1
102
RTVSPropertyOp17
 70
     1
102
RTVSPropertyOp18
 70
     1
102
RTVSPropertyOp19
 70
     1
102
RTVSPropertyOp20
 70
     1
102
RTVSPropertyOp21
 70
     1
102
RTVSPropertyOp22
 70
     1
102
RTVSPropertyOp23
 70
     1
102
RTVSPropertyOp24
 70
     1
102
RTVSPropertyOp25
 70
     1
102
RTVSPropertyOp26
 70
     1
102
RTVSPropertyOp27
 70
     1
102
RTVSPropertyOp28
 70
     1
102
RTVSPropertyOp29
 70
     1
102
RTVSPropertyOp30
 70
     1
102
RTVSPropertyOp31
 70
     1
102
RTVSPropertyOp32
 70
     1
  0
XRECORD
  5
515
102
{ACAD_REACTORS
330
514
102
}
330
514
100
AcDbXrecord
280
     1
102
RTVSPropertyOp0
 70
     1
102
RTVSPropertyOp1
 70
     1
102
RTVSPropertyOp2
 70
     1
102
RTVSPropertyOp3
 70
     1
102
RTVSPropertyOp4
 70
     1
102
RTVSPropertyOp5
 70
     1
102
RTVSPropertyOp6
 70
     1
102
RTVSPropertyOp7
 70
     1
102
RTVSPropertyOp8
 70
     1
102
RTVSPropertyOp9
 70
     1
102
RTVSPropertyOp10
 70
     1
102
RTVSPropertyOp11
 70
     1
102
RTVSPropertyOp12
 70
     1
102
RTVSPropertyOp13
 70
     1
102
RTVSPropertyOp14
 70
     1
102
RTVSPropertyOp15
 70
     1
102
RTVSPropertyOp16
 70
     1
102
RTVSPropertyOp17
 70
     1
102
RTVSPropertyOp18
 70
     1
102
RTVSPropertyOp19
 70
     1
102
RTVSPropertyOp20
 70
     1
102
RTVSPropertyOp21
 70
     1
102
RTVSPropertyOp22
 70
     1
102
RTVSPropertyOp23
 70
     1
102
RTVSPropertyOp24
 70
     1
102
RTVSPropertyOp25
 70
     1
102
RTVSPropertyOp26
 70
     1
102
RTVSPropertyOp27
 70
     1
102
RTVSPropertyOp28
 70
     1
102
RTVSPropertyOp29
 70
     1
102
RTVSPropertyOp30
 70
     1
102
RTVSPropertyOp31
 70
     1
102
RTVSPropertyOp32
 70
     1
  0
XRECORD
  5
51D
102
{ACAD_REACTORS
330
51C
102
}
330
51C
100
AcDbXrecord
280
     1
102
RTVSPropertyOp0
 70
     1
102
RTVSPropertyOp1
 70
     1
102
RTVSPropertyOp2
 70
     1
102
RTVSPropertyOp3
 70
     1
102
RTVSPropertyOp4
 70
     1
102
RTVSPropertyOp5
 70
     1
102
RTVSPropertyOp6
 70
     1
102
RTVSPropertyOp7
 70
     1
102
RTVSPropertyOp8
 70
     1
102
RTVSPropertyOp9
 70
     1
102
RTVSPropertyOp10
 70
     1
102
RTVSPropertyOp11
 70
     1
102
RTVSPropertyOp12
 70
     1
102
RTVSPropertyOp13
 70
     1
102
RTVSPropertyOp14
 70
     1
102
RTVSPropertyOp15
 70
     1
102
RTVSPropertyOp16
 70
     1
102
RTVSPropertyOp17
 70
     1
102
RTVSPropertyOp18
 70
     1
102
RTVSPropertyOp19
 70
     1
102
RTVSPropertyOp20
 70
     1
102
RTVSPropertyOp21
 70
     1
102
RTVSPropertyOp22
 70
     1
102
RTVSPropertyOp23
 70
     1
102
RTVSPropertyOp24
 70
     1
102
RTVSPropertyOp25
 70
     1
102
RTVSPropertyOp26
 70
     1
102
RTVSPropertyOp27
 70
     1
102
RTVSPropertyOp28
 70
     1
102
RTVSPropertyOp29
 70
     1
102
RTVSPropertyOp30
 70
     1
102
RTVSPropertyOp31
 70
     1
102
RTVSPropertyOp32
 70
     1
  0
XRECORD
  5
525
102
{ACAD_REACTORS
330
524
102
}
330
524
100
AcDbXrecord
280
     1
102
RTVSPropertyOp0
 70
     1
102
RTVSPropertyOp1
 70
     1
102
RTVSPropertyOp2
 70
     1
102
RTVSPropertyOp3
 70
     1
102
RTVSPropertyOp4
 70
     1
102
RTVSPropertyOp5
 70
     1
102
RTVSPropertyOp6
 70
     1
102
RTVSPropertyOp7
 70
     1
102
RTVSPropertyOp8
 70
     1
102
RTVSPropertyOp9
 70
     1
102
RTVSPropertyOp10
 70
     1
102
RTVSPropertyOp11
 70
     1
102
RTVSPropertyOp12
 70
     1
102
RTVSPropertyOp13
 70
     1
102
RTVSPropertyOp14
 70
     1
102
RTVSPropertyOp15
 70
     1
102
RTVSPropertyOp16
 70
     1
102
RTVSPropertyOp17
 70
     1
102
RTVSPropertyOp18
 70
     1
102
RTVSPropertyOp19
 70
     1
102
RTVSPropertyOp20
 70
     1
102
RTVSPropertyOp21
 70
     1
102
RTVSPropertyOp22
 70
     1
102
RTVSPropertyOp23
 70
     1
102
RTVSPropertyOp24
 70
     1
102
RTVSPropertyOp25
 70
     1
102
RTVSPropertyOp26
 70
     1
102
RTVSPropertyOp27
 70
     1
102
RTVSPropertyOp28
 70
     1
102
RTVSPropertyOp29
 70
     1
102
RTVSPropertyOp30
 70
     1
102
RTVSPropertyOp31
 70
     1
102
RTVSPropertyOp32
 70
     1
  0
XRECORD
  5
519
102
{ACAD_REACTORS
330
518
102
}
330
518
100
AcDbXrecord
280
     1
102
RTVSPropertyOp0
 70
     1
102
RTVSPropertyOp1
 70
     1
102
RTVSPropertyOp2
 70
     1
102
RTVSPropertyOp3
 70
     1
102
RTVSPropertyOp4
 70
     1
102
RTVSPropertyOp5
 70
     1
102
RTVSPropertyOp6
 70
     1
102
RTVSPropertyOp7
 70
     1
102
RTVSPropertyOp8
 70
     1
102
RTVSPropertyOp9
 70
     1
102
RTVSPropertyOp10
 70
     1
102
RTVSPropertyOp11
 70
     1
102
RTVSPropertyOp12
 70
     1
102
RTVSPropertyOp13
 70
     1
102
RTVSPropertyOp14
 70
     1
102
RTVSPropertyOp15
 70
     1
102
RTVSPropertyOp16
 70
     1
102
RTVSPropertyOp17
 70
     1
102
RTVSPropertyOp18
 70
     1
102
RTVSPropertyOp19
 70
     1
102
RTVSPropertyOp20
 70
     1
102
RTVSPropertyOp21
 70
     1
102
RTVSPropertyOp22
 70
     1
102
RTVSPropertyOp23
 70
     1
102
RTVSPropertyOp24
 70
     1
102
RTVSPropertyOp25
 70
     1
102
RTVSPropertyOp26
 70
     1
102
RTVSPropertyOp27
 70
     1
102
RTVSPropertyOp28
 70
     1
102
RTVSPropertyOp29
 70
     1
102
RTVSPropertyOp30
 70
     1
102
RTVSPropertyOp31
 70
     1
102
RTVSPropertyOp32
 70
     1
  0
XRECORD
  5
51B
102
{ACAD_REACTORS
330
51A
102
}
330
51A
100
AcDbXrecord
280
     1
102
RTVSPropertyOp0
 70
     1
102
RTVSPropertyOp1
 70
     1
102
RTVSPropertyOp2
 70
     1
102
RTVSPropertyOp3
 70
     1
102
RTVSPropertyOp4
 70
     1
102
RTVSPropertyOp5
 70
     1
102
RTVSPropertyOp6
 70
     1
102
RTVSPropertyOp7
 70
     1
102
RTVSPropertyOp8
 70
     1
102
RTVSPropertyOp9
 70
     1
102
RTVSPropertyOp10
 70
     1
102
RTVSPropertyOp11
 70
     1
102
RTVSPropertyOp12
 70
     1
102
RTVSPropertyOp13
 70
     1
102
RTVSPropertyOp14
 70
     1
102
RTVSPropertyOp15
 70
     1
102
RTVSPropertyOp16
 70
     1
102
RTVSPropertyOp17
 70
     1
102
RTVSPropertyOp18
 70
     1
102
RTVSPropertyOp19
 70
     1
102
RTVSPropertyOp20
 70
     1
102
RTVSPropertyOp21
 70
     1
102
RTVSPropertyOp22
 70
     1
102
RTVSPropertyOp23
 70
     1
102
RTVSPropertyOp24
 70
     1
102
RTVSPropertyOp25
 70
     1
102
RTVSPropertyOp26
 70
     1
102
RTVSPropertyOp27
 70
     1
102
RTVSPropertyOp28
 70
     1
102
RTVSPropertyOp29
 70
     1
102
RTVSPropertyOp30
 70
     1
102
RTVSPropertyOp31
 70
     1
102
RTVSPropertyOp32
 70
     1
  0
XRECORD
  5
523
102
{ACAD_REACTORS
330
522
102
}
330
522
100
AcDbXrecord
280
     1
102
RTVSPropertyOp0
 70
     1
102
RTVSPropertyOp1
 70
     1
102
RTVSPropertyOp2
 70
     1
102
RTVSPropertyOp3
 70
     1
102
RTVSPropertyOp4
 70
     1
102
RTVSPropertyOp5
 70
     1
102
RTVSPropertyOp6
 70
     1
102
RTVSPropertyOp7
 70
     1
102
RTVSPropertyOp8
 70
     1
102
RTVSPropertyOp9
 70
     1
102
RTVSPropertyOp10
 70
     1
102
RTVSPropertyOp11
 70
     1
102
RTVSPropertyOp12
 70
     1
102
RTVSPropertyOp13
 70
     1
102
RTVSPropertyOp14
 70
     1
102
RTVSPropertyOp15
 70
     1
102
RTVSPropertyOp16
 70
     1
102
RTVSPropertyOp17
 70
     1
102
RTVSPropertyOp18
 70
     1
102
RTVSPropertyOp19
 70
     1
102
RTVSPropertyOp20
 70
     1
102
RTVSPropertyOp21
 70
     1
102
RTVSPropertyOp22
 70
     1
102
RTVSPropertyOp23
 70
     1
102
RTVSPropertyOp24
 70
     1
102
RTVSPropertyOp25
 70
     1
102
RTVSPropertyOp26
 70
     1
102
RTVSPropertyOp27
 70
     1
102
RTVSPropertyOp28
 70
     1
102
RTVSPropertyOp29
 70
     1
102
RTVSPropertyOp30
 70
     1
102
RTVSPropertyOp31
 70
     1
102
RTVSPropertyOp32
 70
     1
  0
XRECORD
  5
507
102
{ACAD_REACTORS
330
506
102
}
330
506
100
AcDbXrecord
280
     1
102
RTVSPropertyOp0
 70
     1
102
RTVSPropertyOp1
 70
     1
102
RTVSPropertyOp2
 70
     1
102
RTVSPropertyOp3
 70
     1
102
RTVSPropertyOp4
 70
     1
102
RTVSPropertyOp5
 70
     1
102
RTVSPropertyOp6
 70
     1
102
RTVSPropertyOp7
 70
     1
102
RTVSPropertyOp8
 70
     1
102
RTVSPropertyOp9
 70
     1
102
RTVSPropertyOp10
 70
     1
102
RTVSPropertyOp11
 70
     1
102
RTVSPropertyOp12
 70
     1
102
RTVSPropertyOp13
 70
     1
102
RTVSPropertyOp14
 70
     1
102
RTVSPropertyOp15
 70
     1
102
RTVSPropertyOp16
 70
     1
102
RTVSPropertyOp17
 70
     1
102
RTVSPropertyOp18
 70
     1
102
RTVSPropertyOp19
 70
     1
102
RTVSPropertyOp20
 70
     1
102
RTVSPropertyOp21
 70
     1
102
RTVSPropertyOp22
 70
     1
102
RTVSPropertyOp23
 70
     1
102
RTVSPropertyOp24
 70
     1
102
RTVSPropertyOp25
 70
     1
102
RTVSPropertyOp26
 70
     1
102
RTVSPropertyOp27
 70
     1
102
RTVSPropertyOp28
 70
     1
102
RTVSPropertyOp29
 70
     1
102
RTVSPropertyOp30
 70
     1
102
RTVSPropertyOp31
 70
     1
102
RTVSPropertyOp32
 70
     1
  0
XRECORD
  5
509
102
{ACAD_REACTORS
330
508
102
}
330
508
100
AcDbXrecord
280
     1
102
RTVSPropertyOp0
 70
     1
102
RTVSPropertyOp1
 70
     1
102
RTVSPropertyOp2
 70
     1
102
RTVSPropertyOp3
 70
     1
102
RTVSPropertyOp4
 70
     1
102
RTVSPropertyOp5
 70
     1
102
RTVSPropertyOp6
 70
     1
102
RTVSPropertyOp7
 70
     1
102
RTVSPropertyOp8
 70
     1
102
RTVSPropertyOp9
 70
     1
102
RTVSPropertyOp10
 70
     1
102
RTVSPropertyOp11
 70
     1
102
RTVSPropertyOp12
 70
     1
102
RTVSPropertyOp13
 70
     1
102
RTVSPropertyOp14
 70
     1
102
RTVSPropertyOp15
 70
     1
102
RTVSPropertyOp16
 70
     1
102
RTVSPropertyOp17
 70
     1
102
RTVSPropertyOp18
 70
     1
102
RTVSPropertyOp19
 70
     1
102
RTVSPropertyOp20
 70
     1
102
RTVSPropertyOp21
 70
     1
102
RTVSPropertyOp22
 70
     1
102
RTVSPropertyOp23
 70
     1
102
RTVSPropertyOp24
 70
     1
102
RTVSPropertyOp25
 70
     1
102
RTVSPropertyOp26
 70
     1
102
RTVSPropertyOp27
 70
     1
102
RTVSPropertyOp28
 70
     1
102
RTVSPropertyOp29
 70
     1
102
RTVSPropertyOp30
 70
     1
102
RTVSPropertyOp31
 70
     1
102
RTVSPropertyOp32
 70
     1
  0
XRECORD
  5
50B
102
{ACAD_REACTORS
330
50A
102
}
330
50A
100
AcDbXrecord
280
     1
102
RTVSPropertyOp0
 70
     1
102
RTVSPropertyOp1
 70
     1
102
RTVSPropertyOp2
 70
     1
102
RTVSPropertyOp3
 70
     1
102
RTVSPropertyOp4
 70
     1
102
RTVSPropertyOp5
 70
     1
102
RTVSPropertyOp6
 70
     1
102
RTVSPropertyOp7
 70
     1
102
RTVSPropertyOp8
 70
     1
102
RTVSPropertyOp9
 70
     1
102
RTVSPropertyOp10
 70
     1
102
RTVSPropertyOp11
 70
     1
102
RTVSPropertyOp12
 70
     1
102
RTVSPropertyOp13
 70
     1
102
RTVSPropertyOp14
 70
     1
102
RTVSPropertyOp15
 70
     1
102
RTVSPropertyOp16
 70
     1
102
RTVSPropertyOp17
 70
     1
102
RTVSPropertyOp18
 70
     1
102
RTVSPropertyOp19
 70
     1
102
RTVSPropertyOp20
 70
     1
102
RTVSPropertyOp21
 70
     1
102
RTVSPropertyOp22
 70
     1
102
RTVSPropertyOp23
 70
     1
102
RTVSPropertyOp24
 70
     1
102
RTVSPropertyOp25
 70
     1
102
RTVSPropertyOp26
 70
     1
102
RTVSPropertyOp27
 70
     1
102
RTVSPropertyOp28
 70
     1
102
RTVSPropertyOp29
 70
     1
102
RTVSPropertyOp30
 70
     1
102
RTVSPropertyOp31
 70
     1
102
RTVSPropertyOp32
 70
     1
  0
XRECORD
  5
50D
102
{ACAD_REACTORS
330
50C
102
}
330
50C
100
AcDbXrecord
280
     1
102
RTVSPropertyOp0
 70
     1
102
RTVSPropertyOp1
 70
     1
102
RTVSPropertyOp2
 70
     1
102
RTVSPropertyOp3
 70
     1
102
RTVSPropertyOp4
 70
     1
102
RTVSPropertyOp5
 70
     1
102
RTVSPropertyOp6
 70
     1
102
RTVSPropertyOp7
 70
     1
102
RTVSPropertyOp8
 70
     1
102
RTVSPropertyOp9
 70
     1
102
RTVSPropertyOp10
 70
     1
102
RTVSPropertyOp11
 70
     1
102
RTVSPropertyOp12
 70
     1
102
RTVSPropertyOp13
 70
     1
102
RTVSPropertyOp14
 70
     1
102
RTVSPropertyOp15
 70
     1
102
RTVSPropertyOp16
 70
     1
102
RTVSPropertyOp17
 70
     1
102
RTVSPropertyOp18
 70
     1
102
RTVSPropertyOp19
 70
     1
102
RTVSPropertyOp20
 70
     1
102
RTVSPropertyOp21
 70
     1
102
RTVSPropertyOp22
 70
     1
102
RTVSPropertyOp23
 70
     1
102
RTVSPropertyOp24
 70
     1
102
RTVSPropertyOp25
 70
     1
102
RTVSPropertyOp26
 70
     1
102
RTVSPropertyOp27
 70
     1
102
RTVSPropertyOp28
 70
     1
102
RTVSPropertyOp29
 70
     1
102
RTVSPropertyOp30
 70
     1
102
RTVSPropertyOp31
 70
     1
102
RTVSPropertyOp32
 70
     1
  0
XRECORD
  5
521
102
{ACAD_REACTORS
330
520
102
}
330
520
100
AcDbXrecord
280
     1
102
RTVSPropertyOp0
 70
     1
102
RTVSPropertyOp1
 70
     1
102
RTVSPropertyOp2
 70
     1
102
RTVSPropertyOp3
 70
     1
102
RTVSPropertyOp4
 70
     1
102
RTVSPropertyOp5
 70
     1
102
RTVSPropertyOp6
 70
     1
102
RTVSPropertyOp7
 70
     1
102
RTVSPropertyOp8
 70
     1
102
RTVSPropertyOp9
 70
     1
102
RTVSPropertyOp10
 70
     1
102
RTVSPropertyOp11
 70
     1
102
RTVSPropertyOp12
 70
     1
102
RTVSPropertyOp13
 70
     1
102
RTVSPropertyOp14
 70
     1
102
RTVSPropertyOp15
 70
     1
102
RTVSPropertyOp16
 70
     1
102
RTVSPropertyOp17
 70
     1
102
RTVSPropertyOp18
 70
     1
102
RTVSPropertyOp19
 70
     1
102
RTVSPropertyOp20
 70
     1
102
RTVSPropertyOp21
 70
     1
102
RTVSPropertyOp22
 70
     1
102
RTVSPropertyOp23
 70
     1
102
RTVSPropertyOp24
 70
     1
102
RTVSPropertyOp25
 70
     1
102
RTVSPropertyOp26
 70
     1
102
RTVSPropertyOp27
 70
     1
102
RTVSPropertyOp28
 70
     1
102
RTVSPropertyOp29
 70
     1
102
RTVSPropertyOp30
 70
     1
102
RTVSPropertyOp31
 70
     1
102
RTVSPropertyOp32
 70
     1
  0
XRECORD
  5
517
102
{ACAD_REACTORS
330
516
102
}
330
516
100
AcDbXrecord
280
     1
102
RTVSPropertyOp0
 70
     1
102
RTVSPropertyOp1
 70
     1
102
RTVSPropertyOp2
 70
     1
102
RTVSPropertyOp3
 70
     1
102
RTVSPropertyOp4
 70
     1
102
RTVSPropertyOp5
 70
     1
102
RTVSPropertyOp6
 70
     1
102
RTVSPropertyOp7
 70
     1
102
RTVSPropertyOp8
 70
     1
102
RTVSPropertyOp9
 70
     1
102
RTVSPropertyOp10
 70
     1
102
RTVSPropertyOp11
 70
     1
102
RTVSPropertyOp12
 70
     1
102
RTVSPropertyOp13
 70
     1
102
RTVSPropertyOp14
 70
     1
102
RTVSPropertyOp15
 70
     1
102
RTVSPropertyOp16
 70
     1
102
RTVSPropertyOp17
 70
     1
102
RTVSPropertyOp18
 70
     1
102
RTVSPropertyOp19
 70
     1
102
RTVSPropertyOp20
 70
     1
102
RTVSPropertyOp21
 70
     1
102
RTVSPropertyOp22
 70
     1
102
RTVSPropertyOp23
 70
     1
102
RTVSPropertyOp24
 70
     1
102
RTVSPropertyOp25
 70
     1
102
RTVSPropertyOp26
 70
     1
102
RTVSPropertyOp27
 70
     1
102
RTVSPropertyOp28
 70
     1
102
RTVSPropertyOp29
 70
     1
102
RTVSPropertyOp30
 70
     1
102
RTVSPropertyOp31
 70
     1
102
RTVSPropertyOp32
 70
     1
  0
XRECORD
  5
51F
102
{ACAD_REACTORS
330
51E
102
}
330
51E
100
AcDbXrecord
280
     1
102
RTVSPropertyOp0
 70
     1
102
RTVSPropertyOp1
 70
     1
102
RTVSPropertyOp2
 70
     1
102
RTVSPropertyOp3
 70
     1
102
RTVSPropertyOp4
 70
     1
102
RTVSPropertyOp5
 70
     1
102
RTVSPropertyOp6
 70
     1
102
RTVSPropertyOp7
 70
     1
102
RTVSPropertyOp8
 70
     1
102
RTVSPropertyOp9
 70
     1
102
RTVSPropertyOp10
 70
     1
102
RTVSPropertyOp11
 70
     1
102
RTVSPropertyOp12
 70
     1
102
RTVSPropertyOp13
 70
     1
102
RTVSPropertyOp14
 70
     1
102
RTVSPropertyOp15
 70
     1
102
RTVSPropertyOp16
 70
     1
102
RTVSPropertyOp17
 70
     1
102
RTVSPropertyOp18
 70
     1
102
RTVSPropertyOp19
 70
     1
102
RTVSPropertyOp20
 70
     1
102
RTVSPropertyOp21
 70
     1
102
RTVSPropertyOp22
 70
     1
102
RTVSPropertyOp23
 70
     1
102
RTVSPropertyOp24
 70
     1
102
RTVSPropertyOp25
 70
     1
102
RTVSPropertyOp26
 70
     1
102
RTVSPropertyOp27
 70
     1
102
RTVSPropertyOp28
 70
     1
102
RTVSPropertyOp29
 70
     1
102
RTVSPropertyOp30
 70
     1
102
RTVSPropertyOp31
 70
     1
102
RTVSPropertyOp32
 70
     1
  0
ENDSEC
  0
EOF
