  0
SECTION
  2
HEADER
  9
$ACADVER
  1
AC1021
  9
$ACADMAINTVER
 70
    25
  9
$DWGCODEPAGE
  3
ANSI_932
  9
$INSBASE
 10
0.0
 20
0.0
 30
0.0
  9
$EXTMIN
 10
23.542768273717
 20
28.77449455676516
 30
0.0
  9
$EXTMAX
 10
1211.042768273717
 20
820.0769217466193
 30
0.0
  9
$LIMMIN
 10
0.0
 20
0.0
  9
$LIMMAX
 10
1189.0
 20
841.0
  9
$ORTHOMODE
 70
     0
  9
$REGENMODE
 70
     1
  9
$FILLMODE
 70
     1
  9
$QTEXTMODE
 70
     0
  9
$MIRRTEXT
 70
     1
  9
$LTSCALE
 40
0.25
  9
$ATTMODE
 70
     1
  9
$TEXTSIZE
 40
5.0
  9
$TRACEWID
 40
0.05
  9
$TEXTSTYLE
  7
Standard
  9
$CLAYER
  8
0
  9
$CELTYPE
  6
ByLayer
  9
$CECOLOR
 62
   256
  9
$CELTSCALE
 40
1.0
  9
$DISPSILH
 70
     0
  9
$DIMSCALE
 40
1.0
  9
$DIMASZ
 40
2.0
  9
$DIMEXO
 40
2.0
  9
$DIMDLI
 40
10.0
  9
$DIMRND
 40
0.0
  9
$DIMDLE
 40
0.0
  9
$DIMEXE
 40
1.5
  9
$DIMTP
 40
0.0
  9
$DIMTM
 40
0.0
  9
$DIMTXT
 40
4.0
  9
$DIMCEN
 40
0.09
  9
$DIMTSZ
 40
0.0
  9
$DIMTOL
 70
     0
  9
$DIMLIM
 70
     0
  9
$DIMTIH
 70
     0
  9
$DIMTOH
 70
     0
  9
$DIMSE1
 70
     0
  9
$DIMSE2
 70
     0
  9
$DIMTAD
 70
     3
  9
$DIMZIN
 70
     8
  9
$DIMBLK
  1

  9
$DIMASO
 70
     1
  9
$DIMSHO
 70
     1
  9
$DIMPOST
  1

  9
$DIMAPOST
  1

  9
$DIMALT
 70
     0
  9
$DIMALTD
 70
     2
  9
$DIMALTF
 40
25.4
  9
$DIMLFAC
 40
1.0
  9
$DIMTOFL
 70
     1
  9
$DIMTVP
 40
0.7
  9
$DIMTIX
 70
     0
  9
$DIMSOXD
 70
     0
  9
$DIMSAH
 70
     0
  9
$DIMBLK1
  1

  9
$DIMBLK2
  1

  9
$DIMSTYLE
  2
Standard
  9
$DIMCLRD
 70
     0
  9
$DIMCLRE
 70
     0
  9
$DIMCLRT
 70
     0
  9
$DIMTFAC
 40
0.5
  9
$DIMGAP
 40
0.09
  9
$DIMJUST
 70
     0
  9
$DIMSD1
 70
     0
  9
$DIMSD2
 70
     0
  9
$DIMTOLJ
 70
     1
  9
$DIMTZIN
 70
     8
  9
$DIMALTZ
 70
     0
  9
$DIMALTTZ
 70
     0
  9
$DIMUPT
 70
     1
  9
$DIMDEC
 70
     2
  9
$DIMTDEC
 70
     4
  9
$DIMALTU
 70
     2
  9
$DIMALTTD
 70
     2
  9
$DIMTXSTY
  7
Standard
  9
$DIMAUNIT
 70
     0
  9
$DIMADEC
 70
     0
  9
$DIMALTRND
 40
0.0
  9
$DIMAZIN
 70
     0
  9
$DIMDSEP
 70
    46
  9
$DIMATFIT
 70
     2
  9
$DIMFRAC
 70
     0
  9
$DIMLDRBLK
  1

  9
$DIMLUNIT
 70
     2
  9
$DIMLWD
 70
    -2
  9
$DIMLWE
 70
    -2
  9
$DIMTMOVE
 70
     2
  9
$DIMFXL
 40
1.0
  9
$DIMFXLON
 70
     0
  9
$DIMJOGANG
 40
0.7853981633974483
  9
$DIMTFILL
 70
     0
  9
$DIMTFILLCLR
 70
     0
  9
$DIMARCSYM
 70
     0
  9
$DIMLTYPE
  6

  9
$DIMLTEX1
  6

  9
$DIMLTEX2
  6

  9
$LUNITS
 70
     2
  9
$LUPREC
 70
     4
  9
$SKETCHINC
 40
0.1
  9
$FILLETRAD
 40
0.5
  9
$AUNITS
 70
     0
  9
$AUPREC
 70
     0
  9
$MENU
  1
.
  9
$ELEVATION
 40
0.0
  9
$PELEVATION
 40
0.0
  9
$THICKNESS
 40
0.0
  9
$LIMCHECK
 70
     0
  9
$CHAMFERA
 40
0.5
  9
$CHAMFERB
 40
0.5
  9
$CHAMFERC
 40
1.0
  9
$CHAMFERD
 40
0.0
  9
$SKPOLY
 70
     0
  9
$TDCREATE
 40
2456991.888877315
  9
$TDUCREATE
 40
2456991.513877315
  9
$TDUPDATE
 40
2456991.5138839
  9
$TDUUPDATE
 40
2456991.1388839
  9
$TDINDWG
 40
0.0000000116
  9
$TDUSRTIMER
 40
0.0000000116
  9
$USRTIMER
 70
     1
  9
$ANGBASE
 50
0.0
  9
$ANGDIR
 70
     0
  9
$PDMODE
 70
     0
  9
$PDSIZE
 40
0.0
  9
$PLINEWID
 40
0.0
  9
$SPLFRAME
 70
     0
  9
$SPLINETYPE
 70
     6
  9
$SPLINESEGS
 70
     8
  9
$HANDSEED
  5
4FF
  9
$SURFTAB1
 70
     6
  9
$SURFTAB2
 70
     6
  9
$SURFTYPE
 70
     6
  9
$SURFU
 70
     6
  9
$SURFV
 70
     6
  9
$UCSBASE
  2

  9
$UCSNAME
  2

  9
$UCSORG
 10
0.0
 20
0.0
 30
0.0
  9
$UCSXDIR
 10
1.0
 20
0.0
 30
0.0
  9
$UCSYDIR
 10
0.0
 20
1.0
 30
0.0
  9
$UCSORTHOREF
  2

  9
$UCSORTHOVIEW
 70
     0
  9
$UCSORGTOP
 10
0.0
 20
0.0
 30
0.0
  9
$UCSORGBOTTOM
 10
0.0
 20
0.0
 30
0.0
  9
$UCSORGLEFT
 10
0.0
 20
0.0
 30
0.0
  9
$UCSORGRIGHT
 10
0.0
 20
0.0
 30
0.0
  9
$UCSORGFRONT
 10
0.0
 20
0.0
 30
0.0
  9
$UCSORGBACK
 10
0.0
 20
0.0
 30
0.0
  9
$PUCSBASE
  2

  9
$PUCSNAME
  2

  9
$PUCSORG
 10
0.0
 20
0.0
 30
0.0
  9
$PUCSXDIR
 10
1.0
 20
0.0
 30
0.0
  9
$PUCSYDIR
 10
0.0
 20
1.0
 30
0.0
  9
$PUCSORTHOREF
  2

  9
$PUCSORTHOVIEW
 70
     0
  9
$PUCSORGTOP
 10
0.0
 20
0.0
 30
0.0
  9
$PUCSORGBOTTOM
 10
0.0
 20
0.0
 30
0.0
  9
$PUCSORGLEFT
 10
0.0
 20
0.0
 30
0.0
  9
$PUCSORGRIGHT
 10
0.0
 20
0.0
 30
0.0
  9
$PUCSORGFRONT
 10
0.0
 20
0.0
 30
0.0
  9
$PUCSORGBACK
 10
0.0
 20
0.0
 30
0.0
  9
$USERI1
 70
     0
  9
$USERI2
 70
     0
  9
$USERI3
 70
     0
  9
$USERI4
 70
     0
  9
$USERI5
 70
     0
  9
$USERR1
 40
0.0
  9
$USERR2
 40
0.0
  9
$USERR3
 40
0.0
  9
$USERR4
 40
0.0
  9
$USERR5
 40
0.0
  9
$WORLDVIEW
 70
     1
  9
$SHADEDGE
 70
     3
  9
$SHADEDIF
 70
    70
  9
$TILEMODE
 70
     1
  9
$MAXACTVP
 70
    64
  9
$PINSBASE
 10
0.0
 20
0.0
 30
0.0
  9
$PLIMCHECK
 70
     0
  9
$PEXTMIN
 10
0.0
 20
0.0
 30
0.0
  9
$PEXTMAX
 10
1189.0
 20
841.0
 30
0.0
  9
$PLIMMIN
 10
0.0
 20
0.0
  9
$PLIMMAX
 10
1189.0
 20
841.0
  9
$UNITMODE
 70
     0
  9
$VISRETAIN
 70
     1
  9
$PLINEGEN
 70
     0
  9
$PSLTSCALE
 70
     1
  9
$TREEDEPTH
 70
  3020
  9
$CMLSTYLE
  2
Standard
  9
$CMLJUST
 70
     0
  9
$CMLSCALE
 40
1.0
  9
$PROXYGRAPHICS
 70
     1
  9
$MEASUREMENT
 70
     1
  9
$CELWEIGHT
370
    -1
  9
$ENDCAPS
280
     0
  9
$JOINSTYLE
280
     0
  9
$LWDISPLAY
290
     0
  9
$INSUNITS
 70
     4
  9
$HYPERLINKBASE
  1

  9
$STYLESHEET
  1

  9
$XEDIT
290
     1
  9
$CEPSNTYPE
380
     0
  9
$PSTYLEMODE
290
     1
  9
$FINGERPRINTGUID
  2
{01FCC4EF-5729-49BC-AA20-BA1E0D69B336}
  9
$VERSIONGUID
  2
{FAEB1C32-E019-11D5-929B-00C0DF256EC4}
  9
$EXTNAMES
290
     1
  9
$PSVPSCALE
 40
0.0
  9
$OLESTARTUP
290
     0
  9
$SORTENTS
280
   127
  9
$INDEXCTL
280
     0
  9
$HIDETEXT
280
     1
  9
$XCLIPFRAME
290
     0
  9
$HALOGAP
280
     0
  9
$OBSCOLOR
 70
   257
  9
$OBSLTYPE
280
     0
  9
$INTERSECTIONDISPLAY
280
     0
  9
$INTERSECTIONCOLOR
 70
   257
  9
$DIMASSOC
280
     1
  9
$PROJECTNAME
  1

  9
$CAMERADISPLAY
290
     0
  9
$LENSLENGTH
 40
50.0
  9
$CAMERAHEIGHT
 40
0.0
  9
$STEPSPERSEC
 40
2.0
  9
$STEPSIZE
 40
6.0
  9
$3DDWFPREC
 40
2.0
  9
$PSOLWIDTH
 40
0.25
  9
$PSOLHEIGHT
 40
4.0
  9
$LOFTANG1
 40
1.570796326794897
  9
$LOFTANG2
 40
1.570796326794897
  9
$LOFTMAG1
 40
0.0
  9
$LOFTMAG2
 40
0.0
  9
$LOFTPARAM
 70
     7
  9
$LOFTNORMALS
280
     1
  9
$LATITUDE
 40
37.795
  9
$LONGITUDE
 40
-122.394
  9
$NORTHDIRECTION
 40
0.0
  9
$TIMEZONE
 70
 -8000
  9
$LIGHTGLYPHDISPLAY
280
     1
  9
$TILEMODELIGHTSYNCH
280
     1
  9
$SOLIDHIST
280
     1
  9
$SHOWHIST
280
     1
  9
$DWFFRAME
280
     2
  9
$DGNFRAME
280
     2
  9
$REALWORLDSCALE
290
     1
  9
$INTERFERECOLOR
 62
   256
  9
$CSHADOW
280
     0
  9
$SHADOWPLANELOCATION
 40
0.0
  0
ENDSEC
  0
SECTION
  2
CLASSES
  0
CLASS
  1
ACDBDICTIONARYWDFLT
  2
AcDbDictionaryWithDefault
  3
ObjectDBX Classes
 90
        0
 91
        4
280
     0
281
     0
  0
CLASS
  1
VISUALSTYLE
  2
AcDbVisualStyle
  3
ObjectDBX Classes
 90
     4095
 91
        4
280
     0
281
     0
  0
CLASS
  1
MATERIAL
  2
AcDbMaterial
  3
ObjectDBX Classes
 90
     1153
 91
        4
280
     0
281
     0
  0
ENDSEC
  0
SECTION
  2
TABLES
  0
TABLE
  2
VPORT
  5
8
330
0
100
AcDbSymbolTable
 70
     1
  0
VPORT
  5
29
330
8
100
AcDbSymbolTableRecord
100
AcDbViewportTableRecord
  2
*Active
 70
     0
 10
0.0
 20
0.0
 11
1.0
 21
1.0
 12
10.42990654205607
 22
4.5
 13
0.0
 23
0.0
 14
0.5
 24
0.5
 15
0.5
 25
0.5
 16
0.0
 26
0.0
 36
1.0
 17
0.0
 27
0.0
 37
0.0
 40
9.0
 41
1.972972972850329
 42
50.0
 43
0.0
 44
0.0
 50
0.0
 51
0.0
 71
     0
 72
   100
 73
     1
 74
     3
 75
     0
 76
     0
 77
     0
 78
     0
281
     0
 65
     1
110
0.0
120
0.0
130
0.0
111
1.0
121
0.0
131
0.0
112
0.0
122
1.0
132
0.0
 79
     0
146
0.0
 60
     3
 61
     5
292
     1
282
     1
141
0.0
142
0.0
 63
   250
  0
ENDTAB
  0
TABLE
  2
LTYPE
  5
5
330
0
100
AcDbSymbolTable
 70
     9
  0
LTYPE
  5
14
330
5
100
AcDbSymbolTableRecord
100
AcDbLinetypeTableRecord
  2
ByBlock
 70
     0
  3

 72
    65
 73
     0
 40
0.0
  0
LTYPE
  5
15
330
5
100
AcDbSymbolTableRecord
100
AcDbLinetypeTableRecord
  2
ByLayer
 70
     0
  3

 72
    65
 73
     0
 40
0.0
  0
LTYPE
  5
16
330
5
100
AcDbSymbolTableRecord
100
AcDbLinetypeTableRecord
  2
Continuous
 70
     0
  3
Solid line
 72
    65
 73
     0
 40
0.0
  0
LTYPE
  5
8E
330
5
100
AcDbSymbolTableRecord
100
AcDbLinetypeTableRecord
  2
DOT
 70
     0
  3
DOT
 72
    65
 73
     2
 40
4.0
 49
6.0
 74
     0
 49
-2.0
 74
     0
  0
LTYPE
  5
8F
330
5
100
AcDbSymbolTableRecord
100
AcDbLinetypeTableRecord
  2
HIDDEN
 70
     0
  3
HIDDEN
 72
    65
 73
     2
 40
4.2
 49
8.4
 74
     0
 49
-4.2
 74
     0
  0
LTYPE
  5
90
330
5
100
AcDbSymbolTableRecord
100
AcDbLinetypeTableRecord
  2
DASHDOT
 70
     0
  3
DASHDOT
 72
    65
 73
     4
 40
14.5
 49
30.0
 74
     0
 49
-9.0
 74
     0
 49
2.5
 74
     0
 49
-9.0
 74
     0
  0
LTYPE
  5
91
330
5
100
AcDbSymbolTableRecord
100
AcDbLinetypeTableRecord
  2
PHANTOM
 70
     0
  3
PHANTOM
 72
    65
 73
     6
 40
12.0
 49
30.0
 74
     0
 49
-9.0
 74
     0
 49
2.5
 74
     0
 49
-5.0
 74
     0
 49
2.5
 74
     0
 49
-9.0
 74
     0
  0
LTYPE
  5
92
330
5
100
AcDbSymbolTableRecord
100
AcDbLinetypeTableRecord
  2
ACAD_ISO14W100
 70
     0
  3
ACAD_ISO14W100
 72
    65
 73
     8
 40
1.5
 49
12.0
 74
     0
 49
-3.0
 74
     0
 49
0.5
 74
     0
 49
-3.0
 74
     0
 49
0.5
 74
     0
 49
-3.0
 74
     0
 49
0.5
 74
     0
 49
-3.0
 74
     0
  0
LTYPE
  5
93
330
5
100
AcDbSymbolTableRecord
100
AcDbLinetypeTableRecord
  2
ACAD_ISO06W100
 70
     0
  3
ACAD_ISO06W100
 72
    65
 73
     8
 40
13.5
 49
24.0
 74
     0
 49
-3.0
 74
     0
 49
0.5
 74
     0
 49
-3.0
 74
     0
 49
0.5
 74
     0
 49
-3.0
 74
     0
 49
0.5
 74
     0
 49
-3.0
 74
     0
  0
LTYPE
  5
94
330
5
100
AcDbSymbolTableRecord
100
AcDbLinetypeTableRecord
  2
ACAD_ISO11W100
 70
     0
  3
ACAD_ISO11W100
 72
    65
 73
     6
 40
15.5
 49
12.0
 74
     0
 49
-3.0
 74
     0
 49
12.0
 74
     0
 49
-3.0
 74
     0
 49
0.5
 74
     0
 49
-3.0
 74
     0
  0
LTYPE
  5
95
330
5
100
AcDbSymbolTableRecord
100
AcDbLinetypeTableRecord
  2
ACAD_ISO13W100
 70
     0
  3
ACAD_ISO13W100
 72
    65
 73
     8
 40
13.0
 49
12.0
 74
     0
 49
-3.0
 74
     0
 49
12.0
 74
     0
 49
-3.0
 74
     0
 49
0.5
 74
     0
 49
-3.0
 74
     0
 49
0.5
 74
     0
 49
-3.0
 74
     0
  0
ENDTAB
  0
TABLE
  2
LAYER
  5
2
330
0
100
AcDbSymbolTable
 70
    22
  0
LAYER
  5
10
330
2
100
AcDbSymbolTableRecord
100
AcDbLayerTableRecord
  2
0
 70
     0
 62
     7
  6
Continuous
370
    -3
390
F
347
3E
  0
LAYER
  5
96
330
2
100
AcDbSymbolTableRecord
100
AcDbLayerTableRecord
  2
1
 70
     0
 62
     7
  6
Continuous
370
     9
390
F
347
3E
  0
LAYER
  5
97
330
2
100
AcDbSymbolTableRecord
100
AcDbLayerTableRecord
  2
2
 70
     0
 62
   134
  6
Continuous
370
     9
390
F
347
3E
  0
LAYER
  5
98
330
2
100
AcDbSymbolTableRecord
100
AcDbLayerTableRecord
  2
3
 70
     0
 62
   214
  6
Continuous
370
     9
390
F
347
3E
  0
LAYER
  5
99
330
2
100
AcDbSymbolTableRecord
100
AcDbLayerTableRecord
  2
4
 70
     0
 62
    54
  6
Continuous
370
     9
390
F
347
3E
  0
LAYER
  5
9A
330
2
100
AcDbSymbolTableRecord
100
AcDbLayerTableRecord
  2
5
 70
     0
 62
    94
  6
Continuous
370
     9
390
F
347
3E
  0
LAYER
  5
9B
330
2
100
AcDbSymbolTableRecord
100
AcDbLayerTableRecord
  2
6
 70
     0
 62
    14
  6
Continuous
370
     9
390
F
347
3E
  0
LAYER
  5
9C
330
2
100
AcDbSymbolTableRecord
100
AcDbLayerTableRecord
  2
7
 70
     0
 62
     4
  6
Continuous
370
     9
390
F
347
3E
  0
LAYER
  5
9D
330
2
100
AcDbSymbolTableRecord
100
AcDbLayerTableRecord
  2
8
 70
     0
 62
     6
  6
Continuous
370
     9
390
F
347
3E
  0
LAYER
  5
9E
330
2
100
AcDbSymbolTableRecord
100
AcDbLayerTableRecord
  2
9
 70
     0
 62
     2
  6
Continuous
370
     9
390
F
347
3E
  0
LAYER
  5
9F
330
2
100
AcDbSymbolTableRecord
100
AcDbLayerTableRecord
  2
10
 70
     0
 62
     3
  6
Continuous
370
     9
390
F
347
3E
  0
LAYER
  5
A0
330
2
100
AcDbSymbolTableRecord
100
AcDbLayerTableRecord
  2
11
 70
     0
 62
   251
  6
Continuous
370
     9
390
F
347
3E
  0
LAYER
  5
A1
330
2
100
AcDbSymbolTableRecord
100
AcDbLayerTableRecord
  2
12
 70
     0
 62
   136
  6
Continuous
370
     9
390
F
347
3E
  0
LAYER
  5
A2
330
2
100
AcDbSymbolTableRecord
100
AcDbLayerTableRecord
  2
13
 70
     0
 62
   216
  6
Continuous
370
     9
390
F
347
3E
  0
LAYER
  5
A3
330
2
100
AcDbSymbolTableRecord
100
AcDbLayerTableRecord
  2
14
 70
     0
 62
    56
  6
Continuous
370
     9
390
F
347
3E
  0
LAYER
  5
A4
330
2
100
AcDbSymbolTableRecord
100
AcDbLayerTableRecord
  2
15
 70
     0
 62
    96
  6
Continuous
370
     9
390
F
347
3E
  0
LAYER
  5
A5
330
2
100
AcDbSymbolTableRecord
100
AcDbLayerTableRecord
  2
16
 70
     0
 62
    16
  6
Continuous
370
     9
390
F
347
3E
  0
LAYER
  5
A6
330
2
100
AcDbSymbolTableRecord
100
AcDbLayerTableRecord
  2
17
 70
     0
 62
   132
  6
Continuous
370
     9
390
F
347
3E
  0
LAYER
  5
A7
330
2
100
AcDbSymbolTableRecord
100
AcDbLayerTableRecord
  2
18
 70
     0
 62
   212
  6
Continuous
370
     9
390
F
347
3E
  0
LAYER
  5
A8
330
2
100
AcDbSymbolTableRecord
100
AcDbLayerTableRecord
  2
19
 70
     0
 62
    52
  6
Continuous
370
     9
390
F
347
3E
  0
LAYER
  5
A9
330
2
100
AcDbSymbolTableRecord
100
AcDbLayerTableRecord
  2
20
 70
     0
 62
   250
  6
Continuous
370
     9
390
F
347
3E
  0
LAYER
  5
AA
330
2
100
AcDbSymbolTableRecord
100
AcDbLayerTableRecord
  2
128
 70
     0
 62
     7
  6
Continuous
370
     9
390
F
347
3E
  0
ENDTAB
  0
TABLE
  2
STYLE
  5
3
330
0
100
AcDbSymbolTable
 70
     2
  0
STYLE
  5
11
330
3
100
AcDbSymbolTableRecord
100
AcDbTextStyleTableRecord
  2
Standard
 70
     0
 40
0.0
 41
1.0
 50
0.0
 71
     0
 42
5.0
  3
txt
  4
bigfont
  0
STYLE
  5
41
330
3
100
AcDbSymbolTableRecord
100
AcDbTextStyleTableRecord
  2
T_STANDARD
 70
     4
 40
10.0
 41
1.0
 50
0.0
 71
     0
 42
10.0
  3
txt
  4
bigfont
  0
ENDTAB
  0
TABLE
  2
VIEW
  5
6
330
0
100
AcDbSymbolTable
 70
     0
  0
ENDTAB
  0
TABLE
  2
UCS
  5
7
330
0
100
AcDbSymbolTable
 70
     0
  0
ENDTAB
  0
TABLE
  2
APPID
  5
9
330
0
100
AcDbSymbolTable
 70
     2
  0
APPID
  5
12
330
9
100
AcDbSymbolTableRecord
100
AcDbRegAppTableRecord
  2
ACAD
 70
     0
  0
APPID
  5
40
330
9
100
AcDbSymbolTableRecord
100
AcDbRegAppTableRecord
  2
ODA
 70
     0
  0
ENDTAB
  0
TABLE
  2
DIMSTYLE
  5
A
330
0
100
AcDbSymbolTable
 70
     1
100
AcDbDimStyleTable
  0
DIMSTYLE
105
27
330
A
100
AcDbSymbolTableRecord
100
AcDbDimStyleTableRecord
  2
Standard
 70
     0
178
     0
340
11
  0
ENDTAB
  0
TABLE
  2
BLOCK_RECORD
  5
1
330
0
100
AcDbSymbolTable
 70
    16
  0
BLOCK_RECORD
  5
1F
330
1
100
AcDbSymbolTableRecord
100
AcDbBlockTableRecord
  2
*Model_Space
340
22
 70
     0
280
     1
281
     0
  0
BLOCK_RECORD
  5
1B
330
1
100
AcDbSymbolTableRecord
100
AcDbBlockTableRecord
  2
*Paper_Space
340
1E
 70
     0
280
     1
281
     0
  0
BLOCK_RECORD
  5
23
330
1
100
AcDbSymbolTableRecord
100
AcDbBlockTableRecord
  2
*Paper_Space0
340
26
 70
     0
280
     1
281
     0
  0
BLOCK_RECORD
  5
42
330
1
100
AcDbSymbolTableRecord
100
AcDbBlockTableRecord
  2
_ORIGIN
340
0
 70
     0
280
     1
281
     0
  0
BLOCK_RECORD
  5
47
330
1
100
AcDbSymbolTableRecord
100
AcDbBlockTableRecord
  2
_DOTBLANK
340
0
 70
     0
280
     1
281
     0
  0
BLOCK_RECORD
  5
4C
330
1
100
AcDbSymbolTableRecord
100
AcDbBlockTableRecord
  2
_DOT
340
0
 70
     0
280
     1
281
     0
  0
BLOCK_RECORD
  5
51
330
1
100
AcDbSymbolTableRecord
100
AcDbBlockTableRecord
  2
_OPEN
340
0
 70
     0
280
     1
281
     0
  0
BLOCK_RECORD
  5
57
330
1
100
AcDbSymbolTableRecord
100
AcDbBlockTableRecord
  2
_CLOSED
340
0
 70
     0
280
     1
281
     0
  0
BLOCK_RECORD
  5
5E
330
1
100
AcDbSymbolTableRecord
100
AcDbBlockTableRecord
  2
_CLOSEDBLANK
340
0
 70
     0
280
     1
281
     0
  0
BLOCK_RECORD
  5
64
330
1
100
AcDbSymbolTableRecord
100
AcDbBlockTableRecord
  2
_ARROWFILLED
340
0
 70
     0
280
     1
281
     0
  0
BLOCK_RECORD
  5
68
330
1
100
AcDbSymbolTableRecord
100
AcDbBlockTableRecord
  2
_BOXBLANK
340
0
 70
     0
280
     1
281
     0
  0
BLOCK_RECORD
  5
70
330
1
100
AcDbSymbolTableRecord
100
AcDbBlockTableRecord
  2
_BOXFILLED
340
0
 70
     0
280
     1
281
     0
  0
BLOCK_RECORD
  5
75
330
1
100
AcDbSymbolTableRecord
100
AcDbBlockTableRecord
  2
_INTEGRAL
340
0
 70
     0
280
     1
281
     0
  0
BLOCK_RECORD
  5
7A
330
1
100
AcDbSymbolTableRecord
100
AcDbBlockTableRecord
  2
_OBLIQUE
340
0
 70
     0
280
     1
281
     0
  0
BLOCK_RECORD
  5
7E
330
1
100
AcDbSymbolTableRecord
100
AcDbBlockTableRecord
  2
_NONE
340
0
 70
     0
280
     1
281
     0
  0
BLOCK_RECORD
  5
81
330
1
100
AcDbSymbolTableRecord
100
AcDbBlockTableRecord
  2
MARK_OPEN
340
0
 70
     0
280
     1
281
     0
  0
BLOCK_RECORD
  5
86
330
1
100
AcDbSymbolTableRecord
100
AcDbBlockTableRecord
  2
MARK_ORIGIN
340
0
 70
     0
280
     1
281
     0
  0
BLOCK_RECORD
  5
8A
330
1
100
AcDbSymbolTableRecord
100
AcDbBlockTableRecord
  2
MARK_DOT
340
0
 70
     0
280
     1
281
     0
  0
ENDTAB
  0
ENDSEC
  0
SECTION
  2
BLOCKS
  0
BLOCK
  5
20
330
1F
100
AcDbEntity
  8
0
100
AcDbBlockBegin
  2
*Model_Space
 70
     0
 10
0.0
 20
0.0
 30
0.0
  3
*Model_Space
  1

  0
ENDBLK
  5
21
330
1F
100
AcDbEntity
  8
0
100
AcDbBlockEnd
  0
BLOCK
  5
1C
330
1B
100
AcDbEntity
 67
     1
  8
0
100
AcDbBlockBegin
  2
*Paper_Space
 70
     0
 10
0.0
 20
0.0
 30
0.0
  3
*Paper_Space
  1

  0
ENDBLK
  5
1D
330
1B
100
AcDbEntity
 67
     1
  8
0
100
AcDbBlockEnd
  0
BLOCK
  5
24
330
23
100
AcDbEntity
  8
0
100
AcDbBlockBegin
  2
*Paper_Space0
 70
     0
 10
0.0
 20
0.0
 30
0.0
  3
*Paper_Space0
  1

  0
ENDBLK
  5
25
330
23
100
AcDbEntity
  8
0
100
AcDbBlockEnd
  0
BLOCK
  5
45
330
42
100
AcDbEntity
  8
0
100
AcDbBlockBegin
  2
_ORIGIN
 70
     0
 10
0.0
 20
0.0
 30
0.0
  3
_ORIGIN
  1

  0
CIRCLE
  5
43
330
42
100
AcDbEntity
  8
0
100
AcDbCircle
 10
0.0
 20
0.0
 30
0.0
 40
0.5
  0
LINE
  5
44
330
42
100
AcDbEntity
  8
0
100
AcDbLine
 10
0.0
 20
0.0
 30
0.0
 11
-1.0
 21
0.0
 31
0.0
  0
ENDBLK
  5
46
330
42
100
AcDbEntity
  8
0
100
AcDbBlockEnd
  0
BLOCK
  5
4A
330
47
100
AcDbEntity
  8
0
100
AcDbBlockBegin
  2
_DOTBLANK
 70
     0
 10
0.0
 20
0.0
 30
0.0
  3
_DOTBLANK
  1

  0
CIRCLE
  5
48
330
47
100
AcDbEntity
  8
0
100
AcDbCircle
 10
0.0
 20
0.0
 30
0.0
 40
0.5
  0
LINE
  5
49
330
47
100
AcDbEntity
  8
0
100
AcDbLine
 10
-0.5
 20
0.0
 30
0.0
 11
-1.0
 21
0.0
 31
0.0
  0
ENDBLK
  5
4B
330
47
100
AcDbEntity
  8
0
100
AcDbBlockEnd
  0
BLOCK
  5
4F
330
4C
100
AcDbEntity
  8
0
100
AcDbBlockBegin
  2
_DOT
 70
     0
 10
0.0
 20
0.0
 30
0.0
  3
_DOT
  1

  0
LWPOLYLINE
  5
4D
330
4C
100
AcDbEntity
  8
0
100
AcDbPolyline
 90
        2
 70
     1
 43
0.5
 10
-0.25
 20
0.0
 42
1.0
 10
0.25
 20
0.0
 42
1.0
  0
LINE
  5
4E
330
4C
100
AcDbEntity
  8
0
100
AcDbLine
 10
-0.5
 20
0.0
 30
0.0
 11
-1.0
 21
0.0
 31
0.0
  0
ENDBLK
  5
50
330
4C
100
AcDbEntity
  8
0
100
AcDbBlockEnd
  0
BLOCK
  5
55
330
51
100
AcDbEntity
  8
0
100
AcDbBlockBegin
  2
_OPEN
 70
     0
 10
0.0
 20
0.0
 30
0.0
  3
_OPEN
  1

  0
LINE
  5
52
330
51
100
AcDbEntity
  8
0
100
AcDbLine
 10
0.0
 20
0.0
 30
0.0
 11
-1.0
 21
0.1666666666666667
 31
0.0
  0
LINE
  5
53
330
51
100
AcDbEntity
  8
0
100
AcDbLine
 10
0.0
 20
0.0
 30
0.0
 11
-1.0
 21
-0.1666666666666667
 31
0.0
  0
LINE
  5
54
330
51
100
AcDbEntity
  8
0
100
AcDbLine
 10
0.0
 20
0.0
 30
0.0
 11
-1.0
 21
0.0
 31
0.0
  0
ENDBLK
  5
56
330
51
100
AcDbEntity
  8
0
100
AcDbBlockEnd
  0
BLOCK
  5
5C
330
57
100
AcDbEntity
  8
0
100
AcDbBlockBegin
  2
_CLOSED
 70
     0
 10
0.0
 20
0.0
 30
0.0
  3
_CLOSED
  1

  0
LINE
  5
58
330
57
100
AcDbEntity
  8
0
100
AcDbLine
 10
0.0
 20
0.0
 30
0.0
 11
-1.0
 21
0.1666666666666667
 31
0.0
  0
LINE
  5
59
330
57
100
AcDbEntity
  8
0
100
AcDbLine
 10
0.0
 20
0.0
 30
0.0
 11
-1.0
 21
-0.1666666666666667
 31
0.0
  0
LINE
  5
5A
330
57
100
AcDbEntity
  8
0
100
AcDbLine
 10
-1.0
 20
0.1666666666666667
 30
0.0
 11
-1.0
 21
-0.1666666666666667
 31
0.0
  0
LINE
  5
5B
330
57
100
AcDbEntity
  8
0
100
AcDbLine
 10
0.0
 20
0.0
 30
0.0
 11
-1.0
 21
0.0
 31
0.0
  0
ENDBLK
  5
5D
330
57
100
AcDbEntity
  8
0
100
AcDbBlockEnd
  0
BLOCK
  5
62
330
5E
100
AcDbEntity
  8
0
100
AcDbBlockBegin
  2
_CLOSEDBLANK
 70
     0
 10
0.0
 20
0.0
 30
0.0
  3
_CLOSEDBLANK
  1

  0
LINE
  5
5F
330
5E
100
AcDbEntity
  8
0
100
AcDbLine
 10
0.0
 20
0.0
 30
0.0
 11
-1.0
 21
0.1666666666666667
 31
0.0
  0
LINE
  5
60
330
5E
100
AcDbEntity
  8
0
100
AcDbLine
 10
0.0
 20
0.0
 30
0.0
 11
-1.0
 21
-0.1666666666666667
 31
0.0
  0
LINE
  5
61
330
5E
100
AcDbEntity
  8
0
100
AcDbLine
 10
-1.0
 20
0.1666666666666667
 30
0.0
 11
-1.0
 21
-0.1666666666666667
 31
0.0
  0
ENDBLK
  5
63
330
5E
100
AcDbEntity
  8
0
100
AcDbBlockEnd
  0
BLOCK
  5
66
330
64
100
AcDbEntity
  8
0
100
AcDbBlockBegin
  2
_ARROWFILLED
 70
     0
 10
0.0
 20
0.0
 30
0.0
  3
_ARROWFILLED
  1

  0
SOLID
  5
65
330
64
100
AcDbEntity
  8
0
100
AcDbTrace
 10
0.0
 20
0.0
 30
0.0
 11
-1.0
 21
-0.1666666666666667
 31
0.0
 12
-1.0
 22
0.1666666666666667
 32
0.0
 13
0.0
 23
0.0
 33
0.0
  0
ENDBLK
  5
67
330
64
100
AcDbEntity
  8
0
100
AcDbBlockEnd
  0
BLOCK
  5
6E
330
68
100
AcDbEntity
  8
0
100
AcDbBlockBegin
  2
_BOXBLANK
 70
     0
 10
0.0
 20
0.0
 30
0.0
  3
_BOXBLANK
  1

  0
LINE
  5
69
330
68
100
AcDbEntity
  8
0
100
AcDbLine
 10
-0.5
 20
-0.5
 30
0.0
 11
0.5
 21
-0.5
 31
0.0
  0
LINE
  5
6A
330
68
100
AcDbEntity
  8
0
100
AcDbLine
 10
0.5
 20
-0.5
 30
0.0
 11
0.5
 21
0.5
 31
0.0
  0
LINE
  5
6B
330
68
100
AcDbEntity
  8
0
100
AcDbLine
 10
0.5
 20
0.5
 30
0.0
 11
-0.5
 21
0.5
 31
0.0
  0
LINE
  5
6C
330
68
100
AcDbEntity
  8
0
100
AcDbLine
 10
-0.5
 20
0.5
 30
0.0
 11
-0.5
 21
-0.5
 31
0.0
  0
LINE
  5
6D
330
68
100
AcDbEntity
  8
0
100
AcDbLine
 10
-0.5
 20
0.0
 30
0.0
 11
-1.0
 21
0.0
 31
0.0
  0
ENDBLK
  5
6F
330
68
100
AcDbEntity
  8
0
100
AcDbBlockEnd
  0
BLOCK
  5
73
330
70
100
AcDbEntity
  8
0
100
AcDbBlockBegin
  2
_BOXFILLED
 70
     0
 10
0.0
 20
0.0
 30
0.0
  3
_BOXFILLED
  1

  0
SOLID
  5
71
330
70
100
AcDbEntity
  8
0
100
AcDbTrace
 10
-0.5
 20
0.5
 30
0.0
 11
0.5
 21
0.5
 31
0.0
 12
-0.5
 22
-0.5
 32
0.0
 13
0.5
 23
-0.5
 33
0.0
  0
LINE
  5
72
330
70
100
AcDbEntity
  8
0
100
AcDbLine
 10
-0.5
 20
0.0
 30
0.0
 11
-1.0
 21
0.0
 31
0.0
  0
ENDBLK
  5
74
330
70
100
AcDbEntity
  8
0
100
AcDbBlockEnd
  0
BLOCK
  5
78
330
75
100
AcDbEntity
  8
0
100
AcDbBlockBegin
  2
_INTEGRAL
 70
     0
 10
0.0
 20
0.0
 30
0.0
  3
_INTEGRAL
  1

  0
ARC
  5
76
330
75
100
AcDbEntity
  8
0
100
AcDbCircle
 10
0.444888
 20
-0.0913346
 30
0.0
 40
0.4541666
100
AcDbArc
 50
101.9999999999999
 51
167.9999999999998
  0
ARC
  5
77
330
75
100
AcDbEntity
  8
0
100
AcDbCircle
 10
-0.444888
 20
0.0913346
 30
0.0
 40
0.4541666
100
AcDbArc
 50
281.9999999999997
 51
347.9999999999997
  0
ENDBLK
  5
79
330
75
100
AcDbEntity
  8
0
100
AcDbBlockEnd
  0
BLOCK
  5
7C
330
7A
100
AcDbEntity
  8
0
100
AcDbBlockBegin
  2
_OBLIQUE
 70
     0
 10
0.0
 20
0.0
 30
0.0
  3
_OBLIQUE
  1

  0
LINE
  5
7B
330
7A
100
AcDbEntity
  8
0
100
AcDbLine
 10
-0.5
 20
-0.5
 30
0.0
 11
0.5
 21
0.5
 31
0.0
  0
ENDBLK
  5
7D
330
7A
100
AcDbEntity
  8
0
100
AcDbBlockEnd
  0
BLOCK
  5
7F
330
7E
100
AcDbEntity
  8
0
100
AcDbBlockBegin
  2
_NONE
 70
     0
 10
0.0
 20
0.0
 30
0.0
  3
_NONE
  1

  0
ENDBLK
  5
80
330
7E
100
AcDbEntity
  8
0
100
AcDbBlockEnd
  0
BLOCK
  5
84
330
81
100
AcDbEntity
  8
0
100
AcDbBlockBegin
  2
MARK_OPEN
 70
     0
 10
0.0
 20
0.0
 30
0.0
  3
MARK_OPEN
  1

  0
LINE
  5
82
330
81
100
AcDbEntity
  8
0
100
AcDbLine
 10
0.0
 20
0.0
 30
0.0
 11
-1.0
 21
0.1666666666666667
 31
0.0
  0
LINE
  5
83
330
81
100
AcDbEntity
  8
0
100
AcDbLine
 10
0.0
 20
0.0
 30
0.0
 11
-1.0
 21
-0.1666666666666667
 31
0.0
  0
ENDBLK
  5
85
330
81
100
AcDbEntity
  8
0
100
AcDbBlockEnd
  0
BLOCK
  5
88
330
86
100
AcDbEntity
  8
0
100
AcDbBlockBegin
  2
MARK_ORIGIN
 70
     0
 10
0.0
 20
0.0
 30
0.0
  3
MARK_ORIGIN
  1

  0
CIRCLE
  5
87
330
86
100
AcDbEntity
  8
0
100
AcDbCircle
 10
0.0
 20
0.0
 30
0.0
 40
0.5
  0
ENDBLK
  5
89
330
86
100
AcDbEntity
  8
0
100
AcDbBlockEnd
  0
BLOCK
  5
8C
330
8A
100
AcDbEntity
  8
0
100
AcDbBlockBegin
  2
MARK_DOT
 70
     0
 10
0.0
 20
0.0
 30
0.0
  3
MARK_DOT
  1

  0
LWPOLYLINE
  5
8B
330
8A
100
AcDbEntity
  8
0
100
AcDbPolyline
 90
        2
 70
     1
 43
0.5
 10
-0.25
 20
0.0
 42
1.0
 10
0.25
 20
0.0
 42
1.0
  0
ENDBLK
  5
8D
330
8A
100
AcDbEntity
  8
0
100
AcDbBlockEnd
  0
ENDSEC
  0
SECTION
  2
ENTITIES
  0
LINE
  5
AB
330
1F
100
AcDbEntity
  8
1
  6
Continuous
 62
     7
370
     9
100
AcDbLine
 10
78.54587869362365
 20
106.1679636286354
 30
0.0
 11
78.54587869362365
 21
90.16796458230976
 31
0.0
  0
LINE
  5
AC
330
1F
100
AcDbEntity
  8
1
  6
Continuous
 62
     7
370
     9
100
AcDbLine
 10
44.54587869362365
 20
106.1679636286354
 30
0.0
 11
44.54587869362365
 21
90.16796458230976
 31
0.0
  0
LINE
  5
AD
330
1F
100
AcDbEntity
  8
1
  6
Continuous
 62
     7
370
     9
100
AcDbLine
 10
53.54587869362365
 20
115.1679636286354
 30
0.0
 11
69.54587869362365
 21
115.1679636286354
 31
0.0
  0
LINE
  5
AE
330
1F
100
AcDbEntity
  8
1
  6
Continuous
 62
     7
370
     9
100
AcDbLine
 10
53.54587869362365
 20
81.16796267496113
 30
0.0
 11
69.54587869362365
 21
81.16796267496113
 31
0.0
  0
LINE
  5
AF
330
1F
100
AcDbEntity
  8
1
  6
Continuous
 62
     7
370
     9
100
AcDbLine
 10
74.54586534218322
 20
89.66796458230976
 30
0.0
 11
78.04587869362365
 21
89.66796458230976
 31
0.0
  0
LINE
  5
B0
330
1F
100
AcDbEntity
  8
1
  6
Continuous
 62
     7
370
     9
100
AcDbLine
 10
74.54587106422912
 20
106.6679636286354
 30
0.0
 11
78.04587869362365
 21
106.6679636286354
 31
0.0
  0
LINE
  5
B1
330
1F
100
AcDbEntity
  8
1
  6
Continuous
 62
     7
370
     9
100
AcDbLine
 10
70.04587869362365
 20
85.1679550455666
 30
0.0
 11
70.04587869362365
 21
81.66796267496113
 31
0.0
  0
LINE
  5
B2
330
1F
100
AcDbEntity
  8
1
  6
Continuous
 62
     7
370
     9
100
AcDbLine
 10
53.04587869362365
 20
114.6679636286354
 30
0.0
 11
53.04587869362365
 21
111.167968397007
 31
0.0
  0
LINE
  5
B3
330
1F
100
AcDbEntity
  8
1
  6
Continuous
 62
     7
370
     9
100
AcDbLine
 10
45.04587869362365
 20
106.6679636286354
 30
0.0
 11
48.54585962013732
 21
106.6679636286354
 31
0.0
  0
LINE
  5
B4
330
1F
100
AcDbEntity
  8
1
  6
Continuous
 62
     7
370
     9
100
AcDbLine
 10
70.04587869362365
 20
114.6679636286354
 30
0.0
 11
70.04587869362365
 21
111.1679807947731
 31
0.0
  0
LINE
  5
B5
330
1F
100
AcDbEntity
  8
1
  6
Continuous
 62
     7
370
     9
100
AcDbLine
 10
53.04587869362365
 20
85.16796839700703
 30
0.0
 11
53.04587869362365
 21
81.66796267496113
 31
0.0
  0
LINE
  5
B6
330
1F
100
AcDbEntity
  8
1
  6
Continuous
 62
     7
370
     9
100
AcDbLine
 10
45.04587869362365
 20
89.66796458230976
 30
0.0
 11
48.54586343483459
 21
89.66796458230976
 31
0.0
  0
LINE
  5
B7
330
1F
100
AcDbEntity
  8
1
  6
Continuous
 62
     7
370
     9
100
AcDbLine
 10
48.54587487892638
 20
106.6679636286354
 30
0.0
 11
48.54587487892638
 21
89.6679664896584
 31
0.0
  0
LINE
  5
B8
330
1F
100
AcDbEntity
  8
1
  6
Continuous
 62
     7
370
     9
100
AcDbLine
 10
48.54585887538501
 20
106.667961692861
 30
0.0
 11
49.12320986151781
 21
105.6679591023968
 31
0.0
  0
LINE
  5
B9
330
1F
100
AcDbEntity
  8
1
  6
Continuous
 62
     7
370
     9
100
AcDbLine
 10
49.12321809941679
 20
90.66797238760859
 30
0.0
 11
48.54587102380765
 21
89.66797855148485
 31
0.0
  0
LINE
  5
BA
330
1F
100
AcDbEntity
  8
1
  6
Continuous
 62
     7
370
     9
100
AcDbLine
 10
49.12322549538146
 20
90.66796458230976
 30
0.0
 11
52.04587869362365
 21
90.66796458230976
 31
0.0
  0
LINE
  5
BB
330
1F
100
AcDbEntity
  8
1
  6
Continuous
 62
     7
370
     9
100
AcDbLine
 10
49.12323312477599
 20
105.6679636286354
 30
0.0
 11
52.04587869362365
 21
105.6679636286354
 31
0.0
  0
LINE
  5
BC
330
1F
100
AcDbEntity
  8
1
  6
Continuous
 62
     7
370
     9
100
AcDbLine
 10
69.04587869362365
 20
110.5906111048317
 30
0.0
 11
69.04587869362365
 21
107.6679636286354
 31
0.0
  0
LINE
  5
BD
330
1F
100
AcDbEntity
  8
1
  6
Continuous
 62
     7
370
     9
100
AcDbLine
 10
54.04587869362365
 20
110.5906168268776
 30
0.0
 11
54.04587869362365
 21
107.6679636286354
 31
0.0
  0
LINE
  5
BE
330
1F
100
AcDbEntity
  8
1
  6
Continuous
 62
     7
370
     9
100
AcDbLine
 10
54.04587869362365
 20
88.66796458230976
 30
0.0
 11
54.04587869362365
 21
85.74531138406758
 31
0.0
  0
LINE
  5
BF
330
1F
100
AcDbEntity
  8
1
  6
Continuous
 62
     7
370
     9
100
AcDbLine
 10
69.04587869362365
 20
88.66796458230976
 30
0.0
 11
69.04587869362365
 21
85.74531138406758
 31
0.0
  0
LINE
  5
C0
330
1F
100
AcDbEntity
  8
1
  6
Continuous
 62
     7
370
     9
100
AcDbLine
 10
71.04587869362365
 20
90.66796458230976
 30
0.0
 11
73.96853189186584
 21
90.66796458230976
 31
0.0
  0
LINE
  5
C1
330
1F
100
AcDbEntity
  8
1
  6
Continuous
 62
     7
370
     9
100
AcDbLine
 10
71.04587869362365
 20
105.6679636286354
 30
0.0
 11
73.96853189186584
 21
105.6679636286354
 31
0.0
  0
LINE
  5
C2
330
1F
100
AcDbEntity
  8
1
  6
Continuous
 62
     7
370
     9
100
AcDbLine
 10
49.12322549538146
 20
105.6679636286354
 30
0.0
 11
49.12322549538146
 21
90.66796458230976
 31
0.0
  0
LINE
  5
C3
330
1F
100
AcDbEntity
  8
1
  6
Continuous
 62
     7
370
     9
100
AcDbLine
 10
53.04587869362365
 20
85.16796267496113
 30
0.0
 11
70.04587869362365
 21
85.16796267496113
 31
0.0
  0
LINE
  5
C4
330
1F
100
AcDbEntity
  8
1
  6
Continuous
 62
     7
370
     9
100
AcDbLine
 10
54.04587869362365
 20
85.74531138406758
 30
0.0
 11
69.04587869362365
 21
85.74531138406758
 31
0.0
  0
LINE
  5
C5
330
1F
100
AcDbEntity
  8
1
  6
Continuous
 62
     7
370
     9
100
AcDbLine
 10
69.04587504992331
 20
85.7453088913754
 30
0.0
 11
70.0458720658518
 21
85.16795969395528
 31
0.0
  0
LINE
  5
C6
330
1F
100
AcDbEntity
  8
1
  6
Continuous
 62
     7
370
     9
100
AcDbLine
 10
53.04587261101518
 20
85.1679654380258
 30
0.0
 11
54.04587308418971
 21
85.74531627671487
 31
0.0
  0
LINE
  5
C7
330
1F
100
AcDbEntity
  8
1
  6
Continuous
 62
     7
370
     9
100
AcDbLine
 10
74.54588250832091
 20
89.66796458230976
 30
0.0
 11
74.54588250832091
 21
106.6679636286354
 31
0.0
  0
LINE
  5
C8
330
1F
100
AcDbEntity
  8
1
  6
Continuous
 62
     7
370
     9
100
AcDbLine
 10
73.96853189186584
 20
90.66796458230976
 30
0.0
 11
73.96853189186584
 21
105.6679636286354
 31
0.0
  0
LINE
  5
C9
330
1F
100
AcDbEntity
  8
1
  6
Continuous
 62
     7
370
     9
100
AcDbLine
 10
54.04587482253318
 20
110.5906171759708
 30
0.0
 11
53.04588515215477
 21
111.1679638374644
 31
0.0
  0
LINE
  5
CA
330
1F
100
AcDbEntity
  8
1
  6
Continuous
 62
     7
370
     9
100
AcDbLine
 10
70.04587079148905
 20
111.1679763584308
 30
0.0
 11
69.04587220055969
 21
110.5906260742951
 31
0.0
  0
LINE
  5
CB
330
1F
100
AcDbEntity
  8
1
  6
Continuous
 62
     7
370
     9
100
AcDbLine
 10
74.54586923231658
 20
89.66795884229596
 30
0.0
 11
73.9685186477307
 21
90.6679597374791
 31
0.0
  0
LINE
  5
CC
330
1F
100
AcDbEntity
  8
1
  6
Continuous
 62
     7
370
     9
100
AcDbLine
 10
73.96852362101635
 20
105.667962209934
 30
0.0
 11
74.54587048573887
 21
106.6679627750575
 31
0.0
  0
LINE
  5
CD
330
1F
100
AcDbEntity
  8
1
  6
Continuous
 62
     7
370
     9
100
AcDbLine
 10
54.04587869362365
 20
110.5906158732033
 30
0.0
 11
69.04587869362365
 21
110.5906158732033
 31
0.0
  0
LINE
  5
CE
330
1F
100
AcDbEntity
  8
1
  6
Continuous
 62
     7
370
     9
100
AcDbLine
 10
53.04587869362365
 20
111.1679645823098
 30
0.0
 11
70.04587869362365
 21
111.1679645823098
 31
0.0
  0
LINE
  5
CF
330
1F
100
AcDbEntity
  8
1
  6
Continuous
 62
     7
370
     9
100
AcDbLine
 10
54.04586167598626
 20
90.66796662449366
 30
0.0
 11
60.83876648649959
 21
97.46086227342803
 31
0.0
  0
LINE
  5
D0
330
1F
100
AcDbEntity
  8
1
  6
Continuous
 62
     7
370
     9
100
AcDbLine
 10
54.0458762345132
 20
105.6679625472571
 30
0.0
 11
60.83877185998718
 21
98.87507035737207
 31
0.0
  0
LINE
  5
D1
330
1F
100
AcDbEntity
  8
1
  6
Continuous
 62
     7
370
     9
100
AcDbLine
 10
69.04588115273413
 20
105.6679625472571
 30
0.0
 11
62.25298552726014
 21
98.87507035737204
 31
0.0
  0
LINE
  5
D2
330
1F
100
AcDbEntity
  8
1
  6
Continuous
 62
     7
370
     9
100
AcDbLine
 10
69.04589571126104
 20
90.66796662449366
 30
0.0
 11
62.2529909007477
 21
97.46086227342803
 31
0.0
  0
ARC
  5
D3
330
1F
100
AcDbEntity
  8
1
  6
Continuous
 62
     7
370
     9
100
AcDbCircle
 10
53.54587869362365
 20
114.6679636286354
 30
0.0
 40
0.5
100
AcDbArc
 50
89.99998201391097
 51
179.9999640278219
  0
ARC
  5
D4
330
1F
100
AcDbEntity
  8
1
  6
Continuous
 62
     7
370
     9
100
AcDbCircle
 10
78.04587869362365
 20
106.1679636286354
 30
0.0
 40
0.5
100
AcDbArc
 50
0.0
 51
89.99998201391097
  0
ARC
  5
D5
330
1F
100
AcDbEntity
  8
1
  6
Continuous
 62
     7
370
     9
100
AcDbCircle
 10
45.04587869362365
 20
106.1679636286354
 30
0.0
 40
0.5
100
AcDbArc
 50
89.99998201391097
 51
179.9999640278219
  0
ARC
  5
D6
330
1F
100
AcDbEntity
  8
1
  6
Continuous
 62
     7
370
     9
100
AcDbCircle
 10
45.04587869362365
 20
90.16796458230976
 30
0.0
 40
0.5
100
AcDbArc
 50
179.9999640278219
 51
270.0000006832459
  0
ARC
  5
D7
330
1F
100
AcDbEntity
  8
1
  6
Continuous
 62
     7
370
     9
100
AcDbCircle
 10
69.54587869362365
 20
81.66796267496113
 30
0.0
 40
0.5
100
AcDbArc
 50
270.0000179860887
 51
0.0
  0
ARC
  5
D8
330
1F
100
AcDbEntity
  8
1
  6
Continuous
 62
     7
370
     9
100
AcDbCircle
 10
78.04587869362365
 20
90.16796458230976
 30
0.0
 40
0.5
100
AcDbArc
 50
270.0000179860887
 51
0.0
  0
ARC
  5
D9
330
1F
100
AcDbEntity
  8
1
  6
Continuous
 62
     7
370
     9
100
AcDbCircle
 10
53.54587869362365
 20
81.66796267496113
 30
0.0
 40
0.5
100
AcDbArc
 50
179.9999640278219
 51
270.0000006832459
  0
ARC
  5
DA
330
1F
100
AcDbEntity
  8
1
  6
Continuous
 62
     7
370
     9
100
AcDbCircle
 10
69.54587869362365
 20
114.6679636286354
 30
0.0
 40
0.5
100
AcDbArc
 50
0.0
 51
89.99998201391097
  0
ARC
  5
DB
330
1F
100
AcDbEntity
  8
1
  6
Continuous
 62
     7
370
     9
100
AcDbCircle
 10
52.04587869362365
 20
88.66796458230976
 30
0.0
 40
2.0
100
AcDbArc
 50
0.0
 51
89.99998201391055
  0
ARC
  5
DC
330
1F
100
AcDbEntity
  8
1
  6
Continuous
 62
     7
370
     9
100
AcDbCircle
 10
71.04587869362365
 20
107.6679636286354
 30
0.0
 40
2.0
100
AcDbArc
 50
179.9999640278211
 51
270.0000006832459
  0
ARC
  5
DD
330
1F
100
AcDbEntity
  8
1
  6
Continuous
 62
     7
370
     9
100
AcDbCircle
 10
71.04587869362365
 20
88.66796458230976
 30
0.0
 40
2.0
100
AcDbArc
 50
89.99998201391055
 51
179.9999640278211
  0
ARC
  5
DE
330
1F
100
AcDbEntity
  8
1
  6
Continuous
 62
     7
370
     9
100
AcDbCircle
 10
52.04587869362365
 20
107.6679636286354
 30
0.0
 40
2.0
100
AcDbArc
 50
270.0000179860895
 51
0.0
  0
LINE
  5
DF
330
1F
100
AcDbEntity
  8
1
  6
Continuous
 62
     7
370
     9
100
AcDbLine
 10
114.5458782299186
 20
110.5906160189384
 30
0.0
 11
115.5458760781698
 21
111.1679637747324
 31
0.0
  0
LINE
  5
E0
330
1F
100
AcDbEntity
  8
1
  6
Continuous
 62
     7
370
     9
100
AcDbLine
 10
114.545876786275
 20
110.5906158732033
 30
0.0
 11
114.545876786275
 21
102.1679672049121
 31
0.0
  0
LINE
  5
E1
330
1F
100
AcDbEntity
  8
1
  6
Continuous
 62
     7
370
     9
100
AcDbLine
 10
99.54587902892462
 20
110.5906161566323
 30
0.0
 11
98.54587643846048
 21
111.1679671427651
 31
0.0
  0
LINE
  5
E2
330
1F
100
AcDbEntity
  8
1
  6
Continuous
 62
     7
370
     9
100
AcDbLine
 10
115.545876786275
 20
85.16796267496113
 30
0.0
 11
98.54587869362365
 21
85.16796267496113
 31
0.0
  0
LINE
  5
E3
330
1F
100
AcDbEntity
  8
1
  6
Continuous
 62
     7
370
     9
100
AcDbLine
 10
99.54587869362365
 20
110.5906158732033
 30
0.0
 11
99.54587869362365
 21
102.1679636286354
 31
0.0
  0
LINE
  5
E4
330
1F
100
AcDbEntity
  8
1
  6
Continuous
 62
     7
370
     9
100
AcDbLine
 10
115.545876786275
 20
114.6679636286354
 30
0.0
 11
115.545876786275
 21
111.1679645823098
 31
0.0
  0
LINE
  5
E5
330
1F
100
AcDbEntity
  8
1
  6
Continuous
 62
     7
370
     9
100
AcDbLine
 10
115.045876786275
 20
115.1679636286354
 30
0.0
 11
99.04587869362365
 21
115.1679636286354
 31
0.0
  0
LINE
  5
E6
330
1F
100
AcDbEntity
  8
1
  6
Continuous
 62
     7
370
     9
100
AcDbLine
 10
98.54587869362365
 20
114.6679636286354
 30
0.0
 11
98.54587869362365
 21
111.1679645823098
 31
0.0
  0
LINE
  5
E7
330
1F
100
AcDbEntity
  8
1
  6
Continuous
 62
     7
370
     9
100
AcDbLine
 10
114.5458771749949
 20
85.74531274119148
 30
0.0
 11
115.5458784655934
 21
85.16796331832384
 31
0.0
  0
LINE
  5
E8
330
1F
100
AcDbEntity
  8
1
  6
Continuous
 62
     7
370
     9
100
AcDbLine
 10
99.54587632308142
 20
85.74531181221276
 30
0.0
 11
98.5458758583897
 21
85.16796286618131
 31
0.0
  0
LINE
  5
E9
330
1F
100
AcDbEntity
  8
1
  6
Continuous
 62
     7
370
     9
100
AcDbLine
 10
99.54587869362365
 20
85.74531138406758
 30
0.0
 11
99.54587869362365
 21
94.16796362863545
 31
0.0
  0
LINE
  5
EA
330
1F
100
AcDbEntity
  8
1
  6
Continuous
 62
     7
370
     9
100
AcDbLine
 10
114.545876786275
 20
85.74531138406758
 30
0.0
 11
114.545876786275
 21
94.16796362863545
 31
0.0
  0
LINE
  5
EB
330
1F
100
AcDbEntity
  8
1
  6
Continuous
 62
     7
370
     9
100
AcDbLine
 10
98.54587869362365
 20
81.66796458230976
 30
0.0
 11
98.54587869362365
 21
85.16796267496113
 31
0.0
  0
LINE
  5
EC
330
1F
100
AcDbEntity
  8
1
  6
Continuous
 62
     7
370
     9
100
AcDbLine
 10
115.545876786275
 20
81.66796458230976
 30
0.0
 11
115.545876786275
 21
85.16796267496113
 31
0.0
  0
LINE
  5
ED
330
1F
100
AcDbEntity
  8
1
  6
Continuous
 62
     7
370
     9
100
AcDbLine
 10
115.045876786275
 20
81.16796458230976
 30
0.0
 11
99.04587869362365
 21
81.16796458230976
 31
0.0
  0
LINE
  5
EE
330
1F
100
AcDbEntity
  8
1
  6
Continuous
 62
     7
370
     9
100
AcDbLine
 10
115.545876786275
 20
111.1679645823098
 30
0.0
 11
98.54587869362365
 21
111.1679645823098
 31
0.0
  0
LINE
  5
EF
330
1F
100
AcDbEntity
  8
1
  6
Continuous
 62
     7
370
     9
100
AcDbLine
 10
114.545876786275
 20
110.5906158732033
 30
0.0
 11
99.54587869362365
 21
110.5906158732033
 31
0.0
  0
LINE
  5
F0
330
1F
100
AcDbEntity
  8
1
  6
Continuous
 62
     7
370
     9
100
AcDbLine
 10
99.54587869362365
 20
85.74531138406758
 30
0.0
 11
114.545876786275
 21
85.74531138406758
 31
0.0
  0
CIRCLE
  5
F1
330
1F
100
AcDbEntity
  8
1
  6
Continuous
 62
     7
370
     9
100
AcDbCircle
 10
107.0458786936236
 20
98.16796362863545
 30
0.0
 40
4.282999992370605
  0
CIRCLE
  5
F2
330
1F
100
AcDbEntity
  8
1
  6
Continuous
 62
     7
370
     9
100
AcDbCircle
 10
107.0458786936236
 20
98.16796362863545
 30
0.0
 40
5.050000190734863
  0
CIRCLE
  5
F3
330
1F
100
AcDbEntity
  8
1
  6
Continuous
 62
     7
370
     9
100
AcDbCircle
 10
107.0458786936236
 20
98.16796362863545
 30
0.0
 40
4.863999843597412
  0
CIRCLE
  5
F4
330
1F
100
AcDbEntity
  8
1
  6
Continuous
 62
     7
370
     9
100
AcDbCircle
 10
107.0458786936236
 20
98.16796362863545
 30
0.0
 40
4.099999904632568
  0
ARC
  5
F5
330
1F
100
AcDbEntity
  8
1
  6
Continuous
 62
     7
370
     9
100
AcDbCircle
 10
115.045876786275
 20
114.6679636286354
 30
0.0
 40
0.5
100
AcDbArc
 50
0.0
 51
89.99998201391097
  0
ARC
  5
F6
330
1F
100
AcDbEntity
  8
1
  6
Continuous
 62
     7
370
     9
100
AcDbCircle
 10
99.04587869362365
 20
114.6679636286354
 30
0.0
 40
0.5
100
AcDbArc
 50
89.99998201391097
 51
180.0000186693349
  0
ARC
  5
F7
330
1F
100
AcDbEntity
  8
1
  6
Continuous
 62
     7
370
     9
100
AcDbCircle
 10
115.045876786275
 20
81.66796458230976
 30
0.0
 40
0.5
100
AcDbArc
 50
270.0000179860887
 51
0.0
  0
ARC
  5
F8
330
1F
100
AcDbEntity
  8
1
  6
Continuous
 62
     7
370
     9
100
AcDbCircle
 10
99.04587869362365
 20
81.66796458230976
 30
0.0
 40
0.5
100
AcDbArc
 50
179.9999813306647
 51
270.0000179860887
  0
CIRCLE
  5
F9
330
1F
100
AcDbEntity
  8
1
  6
Continuous
 62
     7
370
     9
100
AcDbCircle
 10
107.0458786936236
 20
98.16796362863545
 30
0.0
 40
8.5
  0
LINE
  5
FA
330
1F
100
AcDbEntity
  8
1
  6
Continuous
 62
     7
370
     9
100
AcDbLine
 10
213.545876786275
 20
109.6679636286354
 30
0.0
 11
213.545876786275
 21
90.66796458230976
 31
0.0
  0
LINE
  5
FB
330
1F
100
AcDbEntity
  8
1
  6
Continuous
 62
     7
370
     9
100
AcDbLine
 10
175.545876786275
 20
109.6679636286354
 30
0.0
 11
175.545876786275
 21
90.66796458230976
 31
0.0
  0
LINE
  5
FC
330
1F
100
AcDbEntity
  8
1
  6
Continuous
 62
     7
370
     9
100
AcDbLine
 10
185.045876786275
 20
119.1679636286354
 30
0.0
 11
204.045876786275
 21
119.1679636286354
 31
0.0
  0
LINE
  5
FD
330
1F
100
AcDbEntity
  8
1
  6
Continuous
 62
     7
370
     9
100
AcDbLine
 10
185.045876786275
 20
81.16796267496113
 30
0.0
 11
204.045876786275
 21
81.16796267496113
 31
0.0
  0
LINE
  5
FE
330
1F
100
AcDbEntity
  8
1
  6
Continuous
 62
     7
370
     9
100
AcDbLine
 10
209.5458729715778
 20
89.66796458230976
 30
0.0
 11
212.545876786275
 21
89.66796458230976
 31
0.0
  0
LINE
  5
FF
330
1F
100
AcDbEntity
  8
1
  6
Continuous
 62
     7
370
     9
100
AcDbLine
 10
209.5458672495319
 20
110.6679636286354
 30
0.0
 11
212.545876786275
 21
110.6679636286354
 31
0.0
  0
LINE
  5
100
330
1F
100
AcDbEntity
  8
1
  6
Continuous
 62
     7
370
     9
100
AcDbLine
 10
205.045876786275
 20
85.16795313821797
 30
0.0
 11
205.045876786275
 21
82.16796267496113
 31
0.0
  0
LINE
  5
101
330
1F
100
AcDbEntity
  8
1
  6
Continuous
 62
     7
370
     9
100
AcDbLine
 10
184.045876786275
 20
118.1679636286354
 30
0.0
 11
184.045876786275
 21
115.1679664896584
 31
0.0
  0
LINE
  5
102
330
1F
100
AcDbEntity
  8
1
  6
Continuous
 62
     7
370
     9
100
AcDbLine
 10
176.545876786275
 20
110.6679636286354
 30
0.0
 11
179.5458462686969
 21
110.6679636286354
 31
0.0
  0
LINE
  5
103
330
1F
100
AcDbEntity
  8
1
  6
Continuous
 62
     7
370
     9
100
AcDbLine
 10
205.045876786275
 20
118.1679636286354
 30
0.0
 11
205.045876786275
 21
115.1679798410988
 31
0.0
  0
LINE
  5
104
330
1F
100
AcDbEntity
  8
1
  6
Continuous
 62
     7
370
     9
100
AcDbLine
 10
184.045876786275
 20
85.16796839700703
 30
0.0
 11
184.045876786275
 21
82.16796267496113
 31
0.0
  0
LINE
  5
105
330
1F
100
AcDbEntity
  8
1
  6
Continuous
 62
     7
370
     9
100
AcDbLine
 10
176.545876786275
 20
89.66796458230976
 30
0.0
 11
179.5458691568805
 21
89.66796458230976
 31
0.0
  0
LINE
  5
106
330
1F
100
AcDbEntity
  8
1
  6
Continuous
 62
     7
370
     9
100
AcDbLine
 10
179.5458729715778
 20
110.6679636286354
 30
0.0
 11
179.5458729715778
 21
89.6679664896584
 31
0.0
  0
LINE
  5
107
330
1F
100
AcDbEntity
  8
1
  6
Continuous
 62
     7
370
     9
100
AcDbLine
 10
179.5458477557028
 20
110.6679558683227
 30
0.0
 11
180.1231977881623
 21
109.6679549296715
 31
0.0
  0
LINE
  5
108
330
1F
100
AcDbEntity
  8
1
  6
Continuous
 62
     7
370
     9
100
AcDbLine
 10
180.1232208284903
 20
90.66796873929205
 30
0.0
 11
179.5458737528811
 21
89.6679749031683
 31
0.0
  0
LINE
  5
109
330
1F
100
AcDbEntity
  8
1
  6
Continuous
 62
     7
370
     9
100
AcDbLine
 10
180.1232235880328
 20
90.66796458230976
 30
0.0
 11
183.045876786275
 21
90.66796458230976
 31
0.0
  0
LINE
  5
10A
330
1F
100
AcDbEntity
  8
1
  6
Continuous
 62
     7
370
     9
100
AcDbLine
 10
180.1232312174274
 20
109.6679636286354
 30
0.0
 11
183.045876786275
 21
109.6679636286354
 31
0.0
  0
LINE
  5
10B
330
1F
100
AcDbEntity
  8
1
  6
Continuous
 62
     7
370
     9
100
AcDbLine
 10
204.045876786275
 20
114.5906111048317
 30
0.0
 11
204.045876786275
 21
111.6679636286354
 31
0.0
  0
LINE
  5
10C
330
1F
100
AcDbEntity
  8
1
  6
Continuous
 62
     7
370
     9
100
AcDbLine
 10
185.045876786275
 20
114.5906168268776
 30
0.0
 11
185.045876786275
 21
111.6679636286354
 31
0.0
  0
LINE
  5
10D
330
1F
100
AcDbEntity
  8
1
  6
Continuous
 62
     7
370
     9
100
AcDbLine
 10
185.045876786275
 20
88.66796458230976
 30
0.0
 11
185.045876786275
 21
85.74531138406758
 31
0.0
  0
LINE
  5
10E
330
1F
100
AcDbEntity
  8
1
  6
Continuous
 62
     7
370
     9
100
AcDbLine
 10
204.045876786275
 20
88.66796458230976
 30
0.0
 11
204.045876786275
 21
85.74531138406758
 31
0.0
  0
LINE
  5
10F
330
1F
100
AcDbEntity
  8
1
  6
Continuous
 62
     7
370
     9
100
AcDbLine
 10
206.045876786275
 20
90.66796458230976
 30
0.0
 11
208.9685299845172
 21
90.66796458230976
 31
0.0
  0
LINE
  5
110
330
1F
100
AcDbEntity
  8
1
  6
Continuous
 62
     7
370
     9
100
AcDbLine
 10
206.045876786275
 20
109.6679636286354
 30
0.0
 11
208.9685299845172
 21
109.6679636286354
 31
0.0
  0
LINE
  5
111
330
1F
100
AcDbEntity
  8
1
  6
Continuous
 62
     7
370
     9
100
AcDbLine
 10
180.1232235880328
 20
109.6679636286354
 30
0.0
 11
180.1232235880328
 21
90.66796458230976
 31
0.0
  0
LINE
  5
112
330
1F
100
AcDbEntity
  8
1
  6
Continuous
 62
     7
370
     9
100
AcDbLine
 10
184.045876786275
 20
85.16796267496113
 30
0.0
 11
205.045876786275
 21
85.16796267496113
 31
0.0
  0
LINE
  5
113
330
1F
100
AcDbEntity
  8
1
  6
Continuous
 62
     7
370
     9
100
AcDbLine
 10
185.045876786275
 20
85.74531138406758
 30
0.0
 11
204.045876786275
 21
85.74531138406758
 31
0.0
  0
LINE
  5
114
330
1F
100
AcDbEntity
  8
1
  6
Continuous
 62
     7
370
     9
100
AcDbLine
 10
204.0458708954557
 20
85.74530744530017
 30
0.0
 11
205.0458679113841
 21
85.16795824788005
 31
0.0
  0
LINE
  5
115
330
1F
100
AcDbEntity
  8
1
  6
Continuous
 62
     7
370
     9
100
AcDbLine
 10
184.0458702899734
 20
85.1679643963438
 30
0.0
 11
185.0458707631479
 21
85.74531523503288
 31
0.0
  0
LINE
  5
116
330
1F
100
AcDbEntity
  8
1
  6
Continuous
 62
     7
370
     9
100
AcDbLine
 10
209.5458806009723
 20
89.66796458230976
 30
0.0
 11
209.5458806009723
 21
110.6679636286354
 31
0.0
  0
LINE
  5
117
330
1F
100
AcDbEntity
  8
1
  6
Continuous
 62
     7
370
     9
100
AcDbLine
 10
208.9685299845172
 20
90.66796458230976
 30
0.0
 11
208.9685299845172
 21
109.6679636286354
 31
0.0
  0
LINE
  5
118
330
1F
100
AcDbEntity
  8
1
  6
Continuous
 62
     7
370
     9
100
AcDbLine
 10
185.0458722533609
 20
114.5906155260495
 30
0.0
 11
184.0458825829825
 21
115.1679621875432
 31
0.0
  0
LINE
  5
119
330
1F
100
AcDbEntity
  8
1
  6
Continuous
 62
     7
370
     9
100
AcDbLine
 10
205.0458699301024
 20
115.1679757206387
 30
0.0
 11
204.0458713391731
 21
114.590625436503
 31
0.0
  0
LINE
  5
11A
330
1F
100
AcDbEntity
  8
1
  6
Continuous
 62
     7
370
     9
100
AcDbLine
 10
209.5458741591121
 20
89.66796352208561
 30
0.0
 11
208.9685235149215
 21
90.66796452050704
 31
0.0
  0
LINE
  5
11B
330
1F
100
AcDbEntity
  8
1
  6
Continuous
 62
     7
370
     9
100
AcDbLine
 10
208.968518936952
 20
109.6679629764024
 30
0.0
 11
209.5458658016746
 21
110.6679635415259
 31
0.0
  0
LINE
  5
11C
330
1F
100
AcDbEntity
  8
1
  6
Continuous
 62
     7
370
     9
100
AcDbLine
 10
195.2529826550382
 20
99.46085593502676
 30
0.0
 11
204.0458753021608
 21
90.66796402908955
 31
0.0
  0
LINE
  5
11D
330
1F
100
AcDbEntity
  8
1
  6
Continuous
 62
     7
370
     9
100
AcDbLine
 10
185.045876786275
 20
114.5906158732033
 30
0.0
 11
204.045876786275
 21
114.5906158732033
 31
0.0
  0
LINE
  5
11E
330
1F
100
AcDbEntity
  8
1
  6
Continuous
 62
     7
370
     9
100
AcDbLine
 10
195.2529826550382
 20
100.8750713222441
 30
0.0
 11
204.0458753021608
 21
109.6679632281813
 31
0.0
  0
LINE
  5
11F
330
1F
100
AcDbEntity
  8
1
  6
Continuous
 62
     7
370
     9
100
AcDbLine
 10
185.0458736881392
 20
109.6679634995093
 30
0.0
 11
193.8387687620514
 21
100.8750691667827
 31
0.0
  0
LINE
  5
120
330
1F
100
AcDbEntity
  8
1
  6
Continuous
 62
     7
370
     9
100
AcDbLine
 10
184.045876786275
 20
115.1679645823098
 30
0.0
 11
205.045876786275
 21
115.1679645823098
 31
0.0
  0
LINE
  5
121
330
1F
100
AcDbEntity
  8
1
  6
Continuous
 62
     7
370
     9
100
AcDbLine
 10
185.0458736881392
 20
90.6679637577616
 30
0.0
 11
193.8387687620514
 21
99.46085809048816
 31
0.0
  0
ARC
  5
122
330
1F
100
AcDbEntity
  8
1
  6
Continuous
 62
     7
370
     9
100
AcDbCircle
 10
185.045876786275
 20
118.1679636286354
 30
0.0
 40
1.0
100
AcDbArc
 50
89.99998201391097
 51
179.9999640278219
  0
ARC
  5
123
330
1F
100
AcDbEntity
  8
1
  6
Continuous
 62
     7
370
     9
100
AcDbCircle
 10
212.545876786275
 20
90.66796458230976
 30
0.0
 40
1.0
100
AcDbArc
 50
270.0000179860887
 51
0.0
  0
ARC
  5
124
330
1F
100
AcDbEntity
  8
1
  6
Continuous
 62
     7
370
     9
100
AcDbCircle
 10
204.045876786275
 20
118.1679636286354
 30
0.0
 40
1.0
100
AcDbArc
 50
0.0
 51
89.99998201391097
  0
ARC
  5
125
330
1F
100
AcDbEntity
  8
1
  6
Continuous
 62
     7
370
     9
100
AcDbCircle
 10
212.545876786275
 20
109.6679636286354
 30
0.0
 40
1.0
100
AcDbArc
 50
0.0
 51
89.99998201391097
  0
ARC
  5
126
330
1F
100
AcDbEntity
  8
1
  6
Continuous
 62
     7
370
     9
100
AcDbCircle
 10
204.045876786275
 20
82.16796267496113
 30
0.0
 40
1.0
100
AcDbArc
 50
270.0000179860887
 51
0.0
  0
ARC
  5
127
330
1F
100
AcDbEntity
  8
1
  6
Continuous
 62
     7
370
     9
100
AcDbCircle
 10
183.045876786275
 20
88.66796458230976
 30
0.0
 40
2.0
100
AcDbArc
 50
0.0
 51
89.99998201391097
  0
ARC
  5
128
330
1F
100
AcDbEntity
  8
1
  6
Continuous
 62
     7
370
     9
100
AcDbCircle
 10
206.045876786275
 20
111.6679636286354
 30
0.0
 40
2.0
100
AcDbArc
 50
179.9999640278211
 51
270.0000006832459
  0
ARC
  5
129
330
1F
100
AcDbEntity
  8
1
  6
Continuous
 62
     7
370
     9
100
AcDbCircle
 10
206.045876786275
 20
88.66796458230976
 30
0.0
 40
2.0
100
AcDbArc
 50
89.99998201391097
 51
179.9999640278211
  0
ARC
  5
12A
330
1F
100
AcDbEntity
  8
1
  6
Continuous
 62
     7
370
     9
100
AcDbCircle
 10
183.045876786275
 20
111.6679636286354
 30
0.0
 40
2.0
100
AcDbArc
 50
270.0000179860895
 51
0.0
  0
ARC
  5
12B
330
1F
100
AcDbEntity
  8
1
  6
Continuous
 62
     7
370
     9
100
AcDbCircle
 10
185.045876786275
 20
82.16796267496113
 30
0.0
 40
1.0
100
AcDbArc
 50
179.9999813306655
 51
270.0000179860887
  0
ARC
  5
12C
330
1F
100
AcDbEntity
  8
1
  6
Continuous
 62
     7
370
     9
100
AcDbCircle
 10
176.545876786275
 20
90.66796458230976
 30
0.0
 40
1.0
100
AcDbArc
 50
179.9999813306655
 51
270.0000179860887
  0
ARC
  5
12D
330
1F
100
AcDbEntity
  8
1
  6
Continuous
 62
     7
370
     9
100
AcDbCircle
 10
176.545876786275
 20
109.6679636286354
 30
0.0
 40
1.0
100
AcDbArc
 50
89.99998201391097
 51
179.9999640278219
  0
LINE
  5
12E
330
1F
100
AcDbEntity
  8
1
  6
Continuous
 62
     7
370
     9
100
AcDbLine
 10
253.5458771800147
 20
114.5906180131479
 30
0.0
 11
254.5458750282659
 21
115.167965768942
 31
0.0
  0
LINE
  5
12F
330
1F
100
AcDbEntity
  8
1
  6
Continuous
 62
     7
370
     9
100
AcDbLine
 10
253.5458748789264
 20
114.5906158732033
 30
0.0
 11
253.5458748789264
 21
104.6401036353459
 31
0.0
  0
LINE
  5
130
330
1F
100
AcDbEntity
  8
1
  6
Continuous
 62
     7
370
     9
100
AcDbLine
 10
234.5458770027712
 20
114.590618889481
 30
0.0
 11
233.5458744123071
 21
115.1679698756138
 31
0.0
  0
LINE
  5
131
330
1F
100
AcDbEntity
  8
1
  6
Continuous
 62
     7
370
     9
100
AcDbLine
 10
254.5458748789264
 20
85.16796267496113
 30
0.0
 11
233.545876786275
 21
85.16796267496113
 31
0.0
  0
LINE
  5
132
330
1F
100
AcDbEntity
  8
1
  6
Continuous
 62
     7
370
     9
100
AcDbLine
 10
234.545876786275
 20
114.5906158732033
 30
0.0
 11
234.545876786275
 21
104.640099583635
 31
0.0
  0
LINE
  5
133
330
1F
100
AcDbEntity
  8
1
  6
Continuous
 62
     7
370
     9
100
AcDbLine
 10
254.5458748789264
 20
118.1679636286354
 30
0.0
 11
254.5458748789264
 21
115.1679645823098
 31
0.0
  0
LINE
  5
134
330
1F
100
AcDbEntity
  8
1
  6
Continuous
 62
     7
370
     9
100
AcDbLine
 10
253.5458748789264
 20
119.1679636286354
 30
0.0
 11
234.545876786275
 21
119.1679636286354
 31
0.0
  0
LINE
  5
135
330
1F
100
AcDbEntity
  8
1
  6
Continuous
 62
     7
370
     9
100
AcDbLine
 10
233.545876786275
 20
118.1679636286354
 30
0.0
 11
233.545876786275
 21
115.1679645823098
 31
0.0
  0
LINE
  5
136
330
1F
100
AcDbEntity
  8
1
  6
Continuous
 62
     7
370
     9
100
AcDbLine
 10
253.5458729909465
 20
85.74531259609503
 30
0.0
 11
254.545874281545
 21
85.1679631732274
 31
0.0
  0
LINE
  5
137
330
1F
100
AcDbEntity
  8
1
  6
Continuous
 62
     7
370
     9
100
AcDbLine
 10
234.5458692778834
 20
85.74532021798434
 30
0.0
 11
233.5458688131916
 21
85.1679712719529
 31
0.0
  0
LINE
  5
138
330
1F
100
AcDbEntity
  8
1
  6
Continuous
 62
     7
370
     9
100
AcDbLine
 10
234.5458786936236
 20
85.74530947671894
 30
0.0
 11
234.5458786936236
 21
95.69582331644062
 31
0.0
  0
LINE
  5
139
330
1F
100
AcDbEntity
  8
1
  6
Continuous
 62
     7
370
     9
100
AcDbLine
 10
253.5458786936236
 20
85.74530756937031
 30
0.0
 11
253.5458786936236
 21
95.69583189950947
 31
0.0
  0
LINE
  5
13A
330
1F
100
AcDbEntity
  8
1
  6
Continuous
 62
     7
370
     9
100
AcDbLine
 10
233.545876786275
 20
82.16796458230976
 30
0.0
 11
233.545876786275
 21
85.16796267496113
 31
0.0
  0
LINE
  5
13B
330
1F
100
AcDbEntity
  8
1
  6
Continuous
 62
     7
370
     9
100
AcDbLine
 10
254.5458748789264
 20
82.16796458230976
 30
0.0
 11
254.5458748789264
 21
85.16796267496113
 31
0.0
  0
LINE
  5
13C
330
1F
100
AcDbEntity
  8
1
  6
Continuous
 62
     7
370
     9
100
AcDbLine
 10
253.5458748789264
 20
85.74531138406758
 30
0.0
 11
234.545876786275
 21
85.74531138406758
 31
0.0
  0
LINE
  5
13D
330
1F
100
AcDbEntity
  8
1
  6
Continuous
 62
     7
370
     9
100
AcDbLine
 10
253.5458748789264
 20
81.16796458230976
 30
0.0
 11
234.545876786275
 21
81.16796458230976
 31
0.0
  0
LINE
  5
13E
330
1F
100
AcDbEntity
  8
1
  6
Continuous
 62
     7
370
     9
100
AcDbLine
 10
253.5458748789264
 20
114.5906158732033
 30
0.0
 11
234.545876786275
 21
114.5906158732033
 31
0.0
  0
LINE
  5
13F
330
1F
100
AcDbEntity
  8
1
  6
Continuous
 62
     7
370
     9
100
AcDbLine
 10
254.5458748789264
 20
115.1679645823098
 30
0.0
 11
233.545876786275
 21
115.1679645823098
 31
0.0
  0
ARC
  5
140
330
1F
100
AcDbEntity
  8
1
  6
Continuous
 62
     7
370
     9
100
AcDbCircle
 10
253.5458748789264
 20
82.16796458230976
 30
0.0
 40
1.0
100
AcDbArc
 50
270.0000179860887
 51
0.0
  0
CIRCLE
  5
141
330
1F
100
AcDbEntity
  8
1
  6
Continuous
 62
     7
370
     9
100
AcDbCircle
 10
244.045876786275
 20
100.1679636286354
 30
0.0
 40
6.849999904632568
  0
CIRCLE
  5
142
330
1F
100
AcDbEntity
  8
1
  6
Continuous
 62
     7
370
     9
100
AcDbCircle
 10
244.045876786275
 20
100.1679636286354
 30
0.0
 40
6.578499794006348
  0
ARC
  5
143
330
1F
100
AcDbEntity
  8
1
  6
Continuous
 62
     7
370
     9
100
AcDbCircle
 10
253.5458748789264
 20
118.1679636286354
 30
0.0
 40
1.0
100
AcDbArc
 50
0.0
 51
89.99998201391097
  0
ARC
  5
144
330
1F
100
AcDbEntity
  8
1
  6
Continuous
 62
     7
370
     9
100
AcDbCircle
 10
234.545876786275
 20
82.16796458230976
 30
0.0
 40
1.0
100
AcDbArc
 50
179.9999813306647
 51
270.0000179860887
  0
ARC
  5
145
330
1F
100
AcDbEntity
  8
1
  6
Continuous
 62
     7
370
     9
100
AcDbCircle
 10
234.545876786275
 20
118.1679636286354
 30
0.0
 40
1.0
100
AcDbArc
 50
89.99998201391097
 51
179.9999640278219
  0
CIRCLE
  5
146
330
1F
100
AcDbEntity
  8
1
  6
Continuous
 62
     7
370
     9
100
AcDbCircle
 10
244.045876786275
 20
100.1679636286354
 30
0.0
 40
5.349999904632568
  0
CIRCLE
  5
147
330
1F
100
AcDbEntity
  8
1
  6
Continuous
 62
     7
370
     9
100
AcDbCircle
 10
244.045876786275
 20
100.1679636286354
 30
0.0
 40
10.5
  0
CIRCLE
  5
148
330
1F
100
AcDbEntity
  8
1
  6
Continuous
 62
     7
370
     9
100
AcDbCircle
 10
244.045876786275
 20
100.1679636286354
 30
0.0
 40
5.722499999999997
  0
LINE
  5
149
330
1F
100
AcDbEntity
  8
1
  6
Continuous
 62
     7
370
     9
100
AcDbLine
 10
360.5458729729542
 20
115.6679636286354
 30
0.0
 11
360.5458729729542
 21
92.66796458230976
 31
0.0
  0
LINE
  5
14A
330
1F
100
AcDbEntity
  8
1
  6
Continuous
 62
     7
370
     9
100
AcDbLine
 10
314.5458729729542
 20
115.6679636286354
 30
0.0
 11
314.5458729729542
 21
92.66796458230976
 31
0.0
  0
LINE
  5
14B
330
1F
100
AcDbEntity
  8
1
  6
Continuous
 62
     7
370
     9
100
AcDbLine
 10
326.0458729729542
 20
127.1679645823098
 30
0.0
 11
349.0458729729542
 21
127.1679645823098
 31
0.0
  0
LINE
  5
14C
330
1F
100
AcDbEntity
  8
1
  6
Continuous
 62
     7
370
     9
100
AcDbLine
 10
326.0458729729542
 20
81.16796267496113
 30
0.0
 11
349.0458729729542
 21
81.16796267496113
 31
0.0
  0
LINE
  5
14D
330
1F
100
AcDbEntity
  8
1
  6
Continuous
 62
     7
370
     9
100
AcDbLine
 10
355.545884417046
 20
91.66796458230976
 30
0.0
 11
359.5458729729542
 21
91.66796458230976
 31
0.0
  0
LINE
  5
14E
330
1F
100
AcDbEntity
  8
1
  6
Continuous
 62
     7
370
     9
100
AcDbLine
 10
355.5458558068165
 20
116.6679636286354
 30
0.0
 11
359.5458729729542
 21
116.6679636286354
 31
0.0
  0
LINE
  5
14F
330
1F
100
AcDbEntity
  8
1
  6
Continuous
 62
     7
370
     9
100
AcDbLine
 10
350.0458729729542
 20
86.1679550455666
 30
0.0
 11
350.0458729729542
 21
82.16796267496113
 31
0.0
  0
LINE
  5
150
330
1F
100
AcDbEntity
  8
1
  6
Continuous
 62
     7
370
     9
100
AcDbLine
 10
325.0458729729542
 20
126.1679636286354
 30
0.0
 11
325.0458729729542
 21
122.1679617212868
 31
0.0
  0
LINE
  5
151
330
1F
100
AcDbEntity
  8
1
  6
Continuous
 62
     7
370
     9
100
AcDbLine
 10
315.5458729729542
 20
116.6679636286354
 30
0.0
 11
319.5458233818897
 21
116.6679636286354
 31
0.0
  0
LINE
  5
152
330
1F
100
AcDbEntity
  8
1
  6
Continuous
 62
     7
370
     9
100
AcDbLine
 10
350.0458729729542
 20
126.1679636286354
 30
0.0
 11
350.0458729729542
 21
122.1679769800759
 31
0.0
  0
LINE
  5
153
330
1F
100
AcDbEntity
  8
1
  6
Continuous
 62
     7
370
     9
100
AcDbLine
 10
325.0458729729542
 20
86.1679664896584
 30
0.0
 11
325.0458729729542
 21
82.16796267496113
 31
0.0
  0
LINE
  5
154
330
1F
100
AcDbEntity
  8
1
  6
Continuous
 62
     7
370
     9
100
AcDbLine
 10
315.5458729729542
 20
91.66796458230976
 30
0.0
 11
319.5458653435596
 21
91.66796458230976
 31
0.0
  0
LINE
  5
155
330
1F
100
AcDbEntity
  8
1
  6
Continuous
 62
     7
370
     9
100
AcDbLine
 10
319.5458691582569
 20
116.6679636286354
 30
0.0
 11
319.5458691582569
 21
91.66796458230976
 31
0.0
  0
LINE
  5
156
330
1F
100
AcDbEntity
  8
1
  6
Continuous
 62
     7
370
     9
100
AcDbLine
 10
319.5458302771719
 20
116.6679458544978
 30
0.0
 11
320.1231803096313
 21
115.6679449158466
 31
0.0
  0
LINE
  5
157
330
1F
100
AcDbEntity
  8
1
  6
Continuous
 62
     7
370
     9
100
AcDbLine
 10
320.1232162450443
 20
92.66796848630203
 30
0.0
 11
319.5458691694351
 21
91.66797465017828
 31
0.0
  0
LINE
  5
158
330
1F
100
AcDbEntity
  8
1
  6
Continuous
 62
     7
370
     9
100
AcDbLine
 10
320.123219774712
 20
92.66796458230976
 30
0.0
 11
323.5458729729542
 21
92.66796458230976
 31
0.0
  0
LINE
  5
159
330
1F
100
AcDbEntity
  8
1
  6
Continuous
 62
     7
370
     9
100
AcDbLine
 10
320.1232274041065
 20
115.6679636286354
 30
0.0
 11
323.5458729729542
 21
115.6679636286354
 31
0.0
  0
LINE
  5
15A
330
1F
100
AcDbEntity
  8
1
  6
Continuous
 62
     7
370
     9
100
AcDbLine
 10
349.0458729729542
 20
121.5906111048317
 30
0.0
 11
349.0458729729542
 21
118.1679636286354
 31
0.0
  0
LINE
  5
15B
330
1F
100
AcDbEntity
  8
1
  6
Continuous
 62
     7
370
     9
100
AcDbLine
 10
326.0458729729542
 20
121.5906168268776
 30
0.0
 11
326.0458729729542
 21
118.1679636286354
 31
0.0
  0
LINE
  5
15C
330
1F
100
AcDbEntity
  8
1
  6
Continuous
 62
     7
370
     9
100
AcDbLine
 10
326.0458729729542
 20
90.16796458230976
 30
0.0
 11
326.0458729729542
 21
86.74531138406758
 31
0.0
  0
LINE
  5
15D
330
1F
100
AcDbEntity
  8
1
  6
Continuous
 62
     7
370
     9
100
AcDbLine
 10
349.0458729729542
 20
90.16796458230976
 30
0.0
 11
349.0458729729542
 21
86.74531138406758
 31
0.0
  0
LINE
  5
15E
330
1F
100
AcDbEntity
  8
1
  6
Continuous
 62
     7
370
     9
100
AcDbLine
 10
351.5458729729542
 20
92.66796458230976
 30
0.0
 11
354.9685261711963
 21
92.66796458230976
 31
0.0
  0
LINE
  5
15F
330
1F
100
AcDbEntity
  8
1
  6
Continuous
 62
     7
370
     9
100
AcDbLine
 10
351.5458729729542
 20
115.6679636286354
 30
0.0
 11
354.9685261711963
 21
115.6679636286354
 31
0.0
  0
LINE
  5
160
330
1F
100
AcDbEntity
  8
1
  6
Continuous
 62
     7
370
     9
100
AcDbLine
 10
320.123219774712
 20
115.6679636286354
 30
0.0
 11
320.123219774712
 21
92.66796458230976
 31
0.0
  0
LINE
  5
161
330
1F
100
AcDbEntity
  8
1
  6
Continuous
 62
     7
370
     9
100
AcDbLine
 10
325.0458729729542
 20
86.16796267496113
 30
0.0
 11
350.0458729729542
 21
86.16796267496113
 31
0.0
  0
LINE
  5
162
330
1F
100
AcDbEntity
  8
1
  6
Continuous
 62
     7
370
     9
100
AcDbLine
 10
326.0458729729542
 20
86.74531138406758
 30
0.0
 11
349.0458729729542
 21
86.74531138406758
 31
0.0
  0
LINE
  5
163
330
1F
100
AcDbEntity
  8
1
  6
Continuous
 62
     7
370
     9
100
AcDbLine
 10
349.0458669472767
 20
86.74531050354983
 30
0.0
 11
350.0458631372992
 21
86.16796178296728
 31
0.0
  0
LINE
  5
164
330
1F
100
AcDbEntity
  8
1
  6
Continuous
 62
     7
370
     9
100
AcDbLine
 10
325.0458663072238
 20
86.16796331650389
 30
0.0
 11
326.0458667803983
 21
86.74531415519294
 31
0.0
  0
LINE
  5
165
330
1F
100
AcDbEntity
  8
1
  6
Continuous
 62
     7
370
     9
100
AcDbLine
 10
355.5458767876514
 20
91.66796458230976
 30
0.0
 11
355.5458767876514
 21
116.6679636286354
 31
0.0
  0
LINE
  5
166
330
1F
100
AcDbEntity
  8
1
  6
Continuous
 62
     7
370
     9
100
AcDbLine
 10
354.9685261711963
 20
92.66796458230976
 30
0.0
 11
354.9685261711963
 21
115.6679636286354
 31
0.0
  0
LINE
  5
167
330
1F
100
AcDbEntity
  8
1
  6
Continuous
 62
     7
370
     9
100
AcDbLine
 10
326.0458645947923
 20
121.5906129309704
 30
0.0
 11
325.0458749244139
 21
122.167959592464
 31
0.0
  0
LINE
  5
168
330
1F
100
AcDbEntity
  8
1
  6
Continuous
 62
     7
370
     9
100
AcDbLine
 10
350.0458655828022
 20
122.1679729284702
 30
0.0
 11
349.0458669918728
 21
121.5906226443345
 31
0.0
  0
LINE
  5
169
330
1F
100
AcDbEntity
  8
1
  6
Continuous
 62
     7
370
     9
100
AcDbLine
 10
355.5458817520191
 20
91.6679726176041
 30
0.0
 11
354.9685309886194
 21
92.66797382250209
 31
0.0
  0
LINE
  5
16A
330
1F
100
AcDbEntity
  8
1
  6
Continuous
 62
     7
370
     9
100
AcDbLine
 10
354.9685106693734
 20
115.6679664082441
 30
0.0
 11
355.5458575340959
 21
116.6679669733676
 31
0.0
  0
LINE
  5
16B
330
1F
100
AcDbEntity
  8
1
  6
Continuous
 62
     7
370
     9
100
AcDbLine
 10
338.2529796613473
 20
103.4608567546555
 30
0.0
 11
349.0458676596421
 21
92.6679623879514
 31
0.0
  0
LINE
  5
16C
330
1F
100
AcDbEntity
  8
1
  6
Continuous
 62
     7
370
     9
100
AcDbLine
 10
325.0458729729542
 20
122.1679645823098
 30
0.0
 11
350.0458729729542
 21
122.1679645823098
 31
0.0
  0
LINE
  5
16D
330
1F
100
AcDbEntity
  8
1
  6
Continuous
 62
     7
370
     9
100
AcDbLine
 10
326.0458729729542
 20
121.5906158732033
 30
0.0
 11
349.0458729729542
 21
121.5906158732033
 31
0.0
  0
LINE
  5
16E
330
1F
100
AcDbEntity
  8
1
  6
Continuous
 62
     7
370
     9
100
AcDbLine
 10
326.0458672950656
 20
115.6679641765238
 30
0.0
 11
336.8387659012004
 21
104.8750701192546
 31
0.0
  0
LINE
  5
16F
330
1F
100
AcDbEntity
  8
1
  6
Continuous
 62
     7
370
     9
100
AcDbLine
 10
338.2529796613473
 20
104.8750705026154
 30
0.0
 11
349.0458676596421
 21
115.6679648693195
 31
0.0
  0
LINE
  5
170
330
1F
100
AcDbEntity
  8
1
  6
Continuous
 62
     7
370
     9
100
AcDbLine
 10
326.0458672950656
 20
92.66796308074709
 30
0.0
 11
336.8387659012004
 21
103.4608571380163
 31
0.0
  0
ARC
  5
171
330
1F
100
AcDbEntity
  8
1
  6
Continuous
 62
     7
370
     9
100
AcDbCircle
 10
326.0458729729542
 20
126.1679636286354
 30
0.0
 40
1.0
100
AcDbArc
 50
89.99998201391097
 51
179.9999640278219
  0
ARC
  5
172
330
1F
100
AcDbEntity
  8
1
  6
Continuous
 62
     7
370
     9
100
AcDbCircle
 10
359.5458729729542
 20
92.66796458230976
 30
0.0
 40
1.0
100
AcDbArc
 50
270.0000179860887
 51
0.0
  0
ARC
  5
173
330
1F
100
AcDbEntity
  8
1
  6
Continuous
 62
     7
370
     9
100
AcDbCircle
 10
349.0458729729542
 20
126.1679636286354
 30
0.0
 40
1.0
100
AcDbArc
 50
0.0
 51
89.99998201391097
  0
ARC
  5
174
330
1F
100
AcDbEntity
  8
1
  6
Continuous
 62
     7
370
     9
100
AcDbCircle
 10
359.5458729729542
 20
115.6679636286354
 30
0.0
 40
1.0
100
AcDbArc
 50
0.0
 51
89.99998201391097
  0
ARC
  5
175
330
1F
100
AcDbEntity
  8
1
  6
Continuous
 62
     7
370
     9
100
AcDbCircle
 10
349.0458729729542
 20
82.16796267496113
 30
0.0
 40
1.0
100
AcDbArc
 50
270.0000179860887
 51
0.0
  0
ARC
  5
176
330
1F
100
AcDbEntity
  8
1
  6
Continuous
 62
     7
370
     9
100
AcDbCircle
 10
323.5458729729542
 20
118.1679636286354
 30
0.0
 40
2.5
100
AcDbArc
 50
270.0000179860893
 51
0.0
  0
ARC
  5
177
330
1F
100
AcDbEntity
  8
1
  6
Continuous
 62
     7
370
     9
100
AcDbCircle
 10
351.5458729729542
 20
90.16796458230976
 30
0.0
 40
2.5
100
AcDbArc
 50
89.99998201391031
 51
179.9999640278213
  0
ARC
  5
178
330
1F
100
AcDbEntity
  8
1
  6
Continuous
 62
     7
370
     9
100
AcDbCircle
 10
323.5458729729542
 20
90.16796458230976
 30
0.0
 40
2.5
100
AcDbArc
 50
0.0
 51
89.99998201391031
  0
ARC
  5
179
330
1F
100
AcDbEntity
  8
1
  6
Continuous
 62
     7
370
     9
100
AcDbCircle
 10
351.5458729729542
 20
118.1679636286354
 30
0.0
 40
2.5
100
AcDbArc
 50
179.9999813306654
 51
270.0000179860893
  0
ARC
  5
17A
330
1F
100
AcDbEntity
  8
1
  6
Continuous
 62
     7
370
     9
100
AcDbCircle
 10
326.0458729729542
 20
82.16796267496113
 30
0.0
 40
1.0
100
AcDbArc
 50
179.9999813306655
 51
270.0000179860887
  0
ARC
  5
17B
330
1F
100
AcDbEntity
  8
1
  6
Continuous
 62
     7
370
     9
100
AcDbCircle
 10
315.5458729729542
 20
92.66796458230976
 30
0.0
 40
1.0
100
AcDbArc
 50
179.9999813306647
 51
270.0000179860887
  0
ARC
  5
17C
330
1F
100
AcDbEntity
  8
1
  6
Continuous
 62
     7
370
     9
100
AcDbCircle
 10
315.5458729729542
 20
115.6679636286354
 30
0.0
 40
1.0
100
AcDbArc
 50
89.99998201391097
 51
179.9999640278219
  0
LINE
  5
17D
330
1F
100
AcDbEntity
  8
1
  6
Continuous
 62
     7
370
     9
100
AcDbLine
 10
404.5458711365416
 20
121.5906205869641
 30
0.0
 11
405.5458689847927
 21
122.1679683427582
 31
0.0
  0
LINE
  5
17E
330
1F
100
AcDbEntity
  8
1
  6
Continuous
 62
     7
370
     9
100
AcDbLine
 10
404.5458710656056
 20
121.590617083138
 30
0.0
 11
404.5458710656056
 21
109.0669483246599
 31
0.0
  0
LINE
  5
17F
330
1F
100
AcDbEntity
  8
1
  6
Continuous
 62
     7
370
     9
100
AcDbLine
 10
381.5458754803524
 20
121.5906261101647
 30
0.0
 11
380.5458733028415
 21
122.1679768578792
 31
0.0
  0
LINE
  5
180
330
1F
100
AcDbEntity
  8
1
  6
Continuous
 62
     7
370
     9
100
AcDbLine
 10
404.5458710656056
 20
86.74531259400227
 30
0.0
 11
381.5458748803028
 21
86.74531259400227
 31
0.0
  0
LINE
  5
181
330
1F
100
AcDbEntity
  8
1
  6
Continuous
 62
     7
370
     9
100
AcDbLine
 10
405.5458849269944
 20
86.16796007019934
 30
0.0
 11
380.5458725292283
 21
86.16796007019934
 31
0.0
  0
LINE
  5
182
330
1F
100
AcDbEntity
  8
1
  6
Continuous
 62
     7
370
     9
100
AcDbLine
 10
381.5458729729542
 20
121.590617083138
 30
0.0
 11
381.5458729729542
 21
109.0669438472993
 31
0.0
  0
LINE
  5
183
330
1F
100
AcDbEntity
  8
1
  6
Continuous
 62
     7
370
     9
100
AcDbLine
 10
405.5458710656056
 20
126.1679657922444
 30
0.0
 11
405.5458710656056
 21
122.1679657922444
 31
0.0
  0
LINE
  5
184
330
1F
100
AcDbEntity
  8
1
  6
Continuous
 62
     7
370
     9
100
AcDbLine
 10
404.5458710656056
 20
127.1679657922444
 30
0.0
 11
381.5458729729542
 21
127.1679657922444
 31
0.0
  0
LINE
  5
185
330
1F
100
AcDbEntity
  8
1
  6
Continuous
 62
     7
370
     9
100
AcDbLine
 10
380.5458729729542
 20
126.1679657922444
 30
0.0
 11
380.5458729729542
 21
122.1679657922444
 31
0.0
  0
LINE
  5
186
330
1F
100
AcDbEntity
  8
1
  6
Continuous
 62
     7
370
     9
100
AcDbLine
 10
404.5458685325542
 20
86.74531441964697
 30
0.0
 11
405.5458698231527
 21
86.16796499677935
 31
0.0
  0
LINE
  5
187
330
1F
100
AcDbEntity
  8
1
  6
Continuous
 62
     7
370
     9
100
AcDbLine
 10
381.5458647077854
 20
86.74532804590214
 30
0.0
 11
380.5458642430937
 21
86.16797909987069
 31
0.0
  0
LINE
  5
188
330
1F
100
AcDbEntity
  8
1
  6
Continuous
 62
     7
370
     9
100
AcDbLine
 10
381.5458748803028
 20
86.74531068665364
 30
0.0
 11
381.5458748803028
 21
99.26898088318683
 31
0.0
  0
LINE
  5
189
330
1F
100
AcDbEntity
  8
1
  6
Continuous
 62
     7
370
     9
100
AcDbLine
 10
404.5458748803028
 20
86.745308779305
 30
0.0
 11
404.5458748803028
 21
99.26898946625568
 31
0.0
  0
LINE
  5
18A
330
1F
100
AcDbEntity
  8
1
  6
Continuous
 62
     7
370
     9
100
AcDbLine
 10
380.5458729729542
 20
82.16796579224446
 30
0.0
 11
380.5458729729542
 21
86.16796388489583
 31
0.0
  0
LINE
  5
18B
330
1F
100
AcDbEntity
  8
1
  6
Continuous
 62
     7
370
     9
100
AcDbLine
 10
405.5458710656056
 20
82.16796579224446
 30
0.0
 11
405.5458710656056
 21
86.16796388489583
 31
0.0
  0
LINE
  5
18C
330
1F
100
AcDbEntity
  8
1
  6
Continuous
 62
     7
370
     9
100
AcDbLine
 10
405.5458843345424
 20
122.1679676995932
 30
0.0
 11
380.5458719367762
 21
122.1679676995932
 31
0.0
  0
LINE
  5
18D
330
1F
100
AcDbEntity
  8
1
  6
Continuous
 62
     7
370
     9
100
AcDbLine
 10
404.5458704921565
 20
121.5906151757894
 30
0.0
 11
381.5458743068538
 21
121.5906151757894
 31
0.0
  0
LINE
  5
18E
330
1F
100
AcDbEntity
  8
1
  6
Continuous
 62
     7
370
     9
100
AcDbLine
 10
404.5458710656056
 20
81.16796579224446
 30
0.0
 11
381.5458729729542
 21
81.16796579224446
 31
0.0
  0
CIRCLE
  5
18F
330
1F
100
AcDbEntity
  8
1
  6
Continuous
 62
     7
370
     9
100
AcDbCircle
 10
393.0458729729542
 20
104.167964361733
 30
0.0
 40
7.050000190734863
  0
ARC
  5
190
330
1F
100
AcDbEntity
  8
1
  6
Continuous
 62
     7
370
     9
100
AcDbCircle
 10
404.5458710656056
 20
82.16796579224446
 30
0.0
 40
1.0
100
AcDbArc
 50
270.0000179860854
 51
0.0
  0
ARC
  5
191
330
1F
100
AcDbEntity
  8
1
  6
Continuous
 62
     7
370
     9
100
AcDbCircle
 10
404.5458710656056
 20
126.1679657922444
 30
0.0
 40
1.0
100
AcDbArc
 50
0.0
 51
89.99998201391422
  0
ARC
  5
192
330
1F
100
AcDbEntity
  8
1
  6
Continuous
 62
     7
370
     9
100
AcDbCircle
 10
381.5458729729542
 20
82.16796579224446
 30
0.0
 40
1.0
100
AcDbArc
 50
179.9999813306655
 51
270.000017986092
  0
ARC
  5
193
330
1F
100
AcDbEntity
  8
1
  6
Continuous
 62
     7
370
     9
100
AcDbCircle
 10
381.5458729729542
 20
126.1679657922444
 30
0.0
 40
1.0
100
AcDbArc
 50
89.9999820139077
 51
179.9999640278203
  0
CIRCLE
  5
194
330
1F
100
AcDbEntity
  8
1
  6
Continuous
 62
     7
370
     9
100
AcDbCircle
 10
393.0458729729542
 20
104.167964361733
 30
0.0
 40
8.331000328063965
  0
CIRCLE
  5
195
330
1F
100
AcDbEntity
  8
1
  6
Continuous
 62
     7
370
     9
100
AcDbCircle
 10
393.0458729729542
 20
104.167964361733
 30
0.0
 40
12.5
  0
CIRCLE
  5
196
330
1F
100
AcDbEntity
  8
1
  6
Continuous
 62
     7
370
     9
100
AcDbCircle
 10
393.0458729729542
 20
104.167964361733
 30
0.0
 40
8.600000381469727
  0
CIRCLE
  5
197
330
1F
100
AcDbEntity
  8
1
  6
Continuous
 62
     7
370
     9
100
AcDbCircle
 10
393.0458729729542
 20
104.1679638848958
 30
0.0
 40
7.474999999999994
  0
LINE
  5
198
330
1F
100
AcDbEntity
  8
1
  6
Continuous
 62
     7
370
     9
100
AcDbLine
 10
519.5458710656056
 20
121.1679655359841
 30
0.0
 11
519.5458710656056
 21
95.1679664896584
 31
0.0
  0
LINE
  5
199
330
1F
100
AcDbEntity
  8
1
  6
Continuous
 62
     7
370
     9
100
AcDbLine
 10
465.5458710656056
 20
121.1679655359841
 30
0.0
 11
465.5458710656056
 21
95.1679664896584
 31
0.0
  0
LINE
  5
19A
330
1F
100
AcDbEntity
  8
1
  6
Continuous
 62
     7
370
     9
100
AcDbLine
 10
479.5458710656056
 20
135.1679664896584
 30
0.0
 11
505.5458710656056
 21
135.1679664896584
 31
0.0
  0
LINE
  5
19B
330
1F
100
AcDbEntity
  8
1
  6
Continuous
 62
     7
370
     9
100
AcDbLine
 10
479.5458710656056
 20
81.16796267496113
 30
0.0
 11
505.5458710656056
 21
81.16796267496113
 31
0.0
  0
LINE
  5
19C
330
1F
100
AcDbEntity
  8
1
  6
Continuous
 62
     7
370
     9
100
AcDbLine
 10
514.5458748803029
 20
93.6679664896584
 30
0.0
 11
518.0458710656056
 21
93.6679664896584
 31
0.0
  0
LINE
  5
19D
330
1F
100
AcDbEntity
  8
1
  6
Continuous
 62
     7
370
     9
100
AcDbLine
 10
514.5458484484981
 20
122.6679655359841
 30
0.0
 11
518.0458710656056
 21
122.6679655359841
 31
0.0
  0
LINE
  5
19E
330
1F
100
AcDbEntity
  8
1
  6
Continuous
 62
     7
370
     9
100
AcDbLine
 10
479.0458724194181
 20
94.66796715471015
 30
0.0
 11
491.8387641519623
 21
107.4608588872543
 31
0.0
  0
LINE
  5
19F
330
1F
100
AcDbEntity
  8
1
  6
Continuous
 62
     7
370
     9
100
AcDbLine
 10
507.0458710656056
 20
86.16796458230976
 30
0.0
 11
507.0458710656056
 21
82.66796267496113
 31
0.0
  0
LINE
  5
1A0
330
1F
100
AcDbEntity
  8
1
  6
Continuous
 62
     7
370
     9
100
AcDbLine
 10
478.0458710656056
 20
133.6679664896584
 30
0.0
 11
478.0458710656056
 21
130.1679572306526
 31
0.0
  0
LINE
  5
1A1
330
1F
100
AcDbEntity
  8
1
  6
Continuous
 62
     7
370
     9
100
AcDbLine
 10
467.0458710656056
 20
122.6679655359841
 30
0.0
 11
470.5457961945199
 21
122.6679655359841
 31
0.0
  0
LINE
  5
1A2
330
1F
100
AcDbEntity
  8
1
  6
Continuous
 62
     7
370
     9
100
AcDbLine
 10
507.0458710656056
 20
133.6679664896584
 30
0.0
 11
507.0458710656056
 21
130.167977578878
 31
0.0
  0
LINE
  5
1A3
330
1F
100
AcDbEntity
  8
1
  6
Continuous
 62
     7
370
     9
100
AcDbLine
 10
478.0458710656056
 20
86.16796458230976
 30
0.0
 11
478.0458710656056
 21
82.66796267496113
 31
0.0
  0
LINE
  5
1A4
330
1F
100
AcDbEntity
  8
1
  6
Continuous
 62
     7
370
     9
100
AcDbLine
 10
467.0458710656056
 20
93.6679664896584
 30
0.0
 11
470.5458710656056
 21
93.6679664896584
 31
0.0
  0
LINE
  5
1A5
330
1F
100
AcDbEntity
  8
1
  6
Continuous
 62
     7
370
     9
100
AcDbLine
 10
470.5458710656056
 20
122.6679655359841
 30
0.0
 11
470.5458710656056
 21
93.66796839700703
 31
0.0
  0
LINE
  5
1A6
330
1F
100
AcDbEntity
  8
1
  6
Continuous
 62
     7
370
     9
100
AcDbLine
 10
470.5458106943427
 20
122.6679404215204
 30
0.0
 11
471.1231607268021
 21
121.6679394828692
 31
0.0
  0
LINE
  5
1A7
330
1F
100
AcDbEntity
  8
1
  6
Continuous
 62
     7
370
     9
100
AcDbLine
 10
471.1232133719971
 20
94.66797493226184
 30
0.0
 11
470.5458662963879
 21
93.6679810961381
 31
0.0
  0
LINE
  5
1A8
330
1F
100
AcDbEntity
  8
1
  6
Continuous
 62
     7
370
     9
100
AcDbLine
 10
471.1232178673635
 20
94.6679664896584
 30
0.0
 11
476.0458710656056
 21
94.6679664896584
 31
0.0
  0
LINE
  5
1A9
330
1F
100
AcDbEntity
  8
1
  6
Continuous
 62
     7
370
     9
100
AcDbLine
 10
471.123225496758
 20
121.6679655359841
 30
0.0
 11
476.0458710656056
 21
121.6679655359841
 31
0.0
  0
LINE
  5
1AA
330
1F
100
AcDbEntity
  8
1
  6
Continuous
 62
     7
370
     9
100
AcDbLine
 10
506.0458710656056
 20
129.5906130121804
 30
0.0
 11
506.0458710656056
 21
124.6679655359841
 31
0.0
  0
LINE
  5
1AB
330
1F
100
AcDbEntity
  8
1
  6
Continuous
 62
     7
370
     9
100
AcDbLine
 10
479.0458710656056
 20
129.5906187342263
 30
0.0
 11
479.0458710656056
 21
124.6679655359841
 31
0.0
  0
LINE
  5
1AC
330
1F
100
AcDbEntity
  8
1
  6
Continuous
 62
     7
370
     9
100
AcDbLine
 10
479.0458710656056
 20
91.6679664896584
 30
0.0
 11
479.0458710656056
 21
86.74531329141621
 31
0.0
  0
LINE
  5
1AD
330
1F
100
AcDbEntity
  8
1
  6
Continuous
 62
     7
370
     9
100
AcDbLine
 10
506.0458710656056
 20
91.6679664896584
 30
0.0
 11
506.0458710656056
 21
86.74531329141621
 31
0.0
  0
LINE
  5
1AE
330
1F
100
AcDbEntity
  8
1
  6
Continuous
 62
     7
370
     9
100
AcDbLine
 10
509.0458710656056
 20
94.6679664896584
 30
0.0
 11
513.9685242638478
 21
94.6679664896584
 31
0.0
  0
LINE
  5
1AF
330
1F
100
AcDbEntity
  8
1
  6
Continuous
 62
     7
370
     9
100
AcDbLine
 10
509.0458710656056
 20
121.6679655359841
 30
0.0
 11
513.9685242638478
 21
121.6679655359841
 31
0.0
  0
LINE
  5
1B0
330
1F
100
AcDbEntity
  8
1
  6
Continuous
 62
     7
370
     9
100
AcDbLine
 10
471.1232178673635
 20
121.6679655359841
 30
0.0
 11
471.1232178673635
 21
94.6679664896584
 31
0.0
  0
LINE
  5
1B1
330
1F
100
AcDbEntity
  8
1
  6
Continuous
 62
     7
370
     9
100
AcDbLine
 10
478.0458710656056
 20
86.16796458230976
 30
0.0
 11
507.0458710656056
 21
86.16796458230976
 31
0.0
  0
LINE
  5
1B2
330
1F
100
AcDbEntity
  8
1
  6
Continuous
 62
     7
370
     9
100
AcDbLine
 10
479.0458710656056
 20
86.74531329141621
 30
0.0
 11
506.0458710656056
 21
86.74531329141621
 31
0.0
  0
LINE
  5
1B3
330
1F
100
AcDbEntity
  8
1
  6
Continuous
 62
     7
370
     9
100
AcDbLine
 10
506.0458656803486
 20
86.74531193571273
 30
0.0
 11
507.0458618703711
 21
86.16796321513019
 31
0.0
  0
LINE
  5
1B4
330
1F
100
AcDbEntity
  8
1
  6
Continuous
 62
     7
370
     9
100
AcDbLine
 10
478.0458644747108
 20
86.16796410585467
 30
0.0
 11
479.0458649478854
 21
86.74531494454374
 31
0.0
  0
LINE
  5
1B5
330
1F
100
AcDbEntity
  8
1
  6
Continuous
 62
     7
370
     9
100
AcDbLine
 10
514.5458748803029
 20
93.6679664896584
 30
0.0
 11
514.5458748803029
 21
122.6679655359841
 31
0.0
  0
LINE
  5
1B6
330
1F
100
AcDbEntity
  8
1
  6
Continuous
 62
     7
370
     9
100
AcDbLine
 10
513.9685242638478
 20
94.6679664896584
 30
0.0
 11
513.9685242638478
 21
121.6679655359841
 31
0.0
  0
LINE
  5
1B7
330
1F
100
AcDbEntity
  8
1
  6
Continuous
 62
     7
370
     9
100
AcDbLine
 10
479.0458599160705
 20
129.5906110425382
 30
0.0
 11
478.0458702456921
 21
130.1679577040318
 31
0.0
  0
LINE
  5
1B8
330
1F
100
AcDbEntity
  8
1
  6
Continuous
 62
     7
370
     9
100
AcDbLine
 10
507.045863911481
 20
130.1679734484363
 30
0.0
 11
506.0458653205516
 21
129.5906231643007
 31
0.0
  0
LINE
  5
1B9
330
1F
100
AcDbEntity
  8
1
  6
Continuous
 62
     7
370
     9
100
AcDbLine
 10
514.5458871638044
 20
93.66798014615169
 30
0.0
 11
513.9685362215909
 21
94.66798166076453
 31
0.0
  0
LINE
  5
1BA
330
1F
100
AcDbEntity
  8
1
  6
Continuous
 62
     7
370
     9
100
AcDbLine
 10
513.9685049801855
 20
121.6679708536532
 30
0.0
 11
514.545851844908
 21
122.6679714187767
 31
0.0
  0
LINE
  5
1BB
330
1F
100
AcDbEntity
  8
1
  6
Continuous
 62
     7
370
     9
100
AcDbLine
 10
493.2529777111728
 20
107.4608586191781
 30
0.0
 11
506.0458705243399
 21
94.667965806011
 31
0.0
  0
LINE
  5
1BC
330
1F
100
AcDbEntity
  8
1
  6
Continuous
 62
     7
370
     9
100
AcDbLine
 10
479.0458724194181
 20
121.667963917258
 30
0.0
 11
491.8387641519623
 21
108.8750721847138
 31
0.0
  0
LINE
  5
1BD
330
1F
100
AcDbEntity
  8
1
  6
Continuous
 62
     7
370
     9
100
AcDbLine
 10
493.2529777111728
 20
108.87507245279
 30
0.0
 11
506.0458705243399
 21
121.6679652659572
 31
0.0
  0
LINE
  5
1BE
330
1F
100
AcDbEntity
  8
1
  6
Continuous
 62
     7
370
     9
100
AcDbLine
 10
479.0458710656056
 20
129.590617780552
 30
0.0
 11
506.0458710656056
 21
129.590617780552
 31
0.0
  0
LINE
  5
1BF
330
1F
100
AcDbEntity
  8
1
  6
Continuous
 62
     7
370
     9
100
AcDbLine
 10
478.0458710656056
 20
130.1679664896584
 30
0.0
 11
507.0458710656056
 21
130.1679664896584
 31
0.0
  0
ARC
  5
1C0
330
1F
100
AcDbEntity
  8
1
  6
Continuous
 62
     7
370
     9
100
AcDbCircle
 10
509.0458710656056
 20
124.6679655359841
 30
0.0
 40
3.0
100
AcDbArc
 50
179.9999813306653
 51
270.0000179860897
  0
ARC
  5
1C1
330
1F
100
AcDbEntity
  8
1
  6
Continuous
 62
     7
370
     9
100
AcDbCircle
 10
509.0458710656056
 20
91.6679664896584
 30
0.0
 40
3.0
100
AcDbArc
 50
89.99998201390989
 51
179.9999640278214
  0
ARC
  5
1C2
330
1F
100
AcDbEntity
  8
1
  6
Continuous
 62
     7
370
     9
100
AcDbCircle
 10
476.0458710656056
 20
124.6679655359841
 30
0.0
 40
3.0
100
AcDbArc
 50
270.0000179860897
 51
0.0
  0
ARC
  5
1C3
330
1F
100
AcDbEntity
  8
1
  6
Continuous
 62
     7
370
     9
100
AcDbCircle
 10
476.0458710656056
 20
91.6679664896584
 30
0.0
 40
3.0
100
AcDbArc
 50
0.0
 51
89.99998201390989
  0
ARC
  5
1C4
330
1F
100
AcDbEntity
  8
1
  6
Continuous
 62
     7
370
     9
100
AcDbCircle
 10
505.5458710656056
 20
82.66796267496113
 30
0.0
 40
1.5
100
AcDbArc
 50
270.0000179860897
 51
0.0
  0
ARC
  5
1C5
330
1F
100
AcDbEntity
  8
1
  6
Continuous
 62
     7
370
     9
100
AcDbCircle
 10
467.0458710656056
 20
95.1679664896584
 30
0.0
 40
1.5
100
AcDbArc
 50
179.9999813306653
 51
270.0000179860897
  0
ARC
  5
1C6
330
1F
100
AcDbEntity
  8
1
  6
Continuous
 62
     7
370
     9
100
AcDbCircle
 10
479.5458710656056
 20
82.66796267496113
 30
0.0
 40
1.5
100
AcDbArc
 50
179.9999813306653
 51
270.0000179860897
  0
ARC
  5
1C7
330
1F
100
AcDbEntity
  8
1
  6
Continuous
 62
     7
370
     9
100
AcDbCircle
 10
479.5458710656056
 20
133.6679664896584
 30
0.0
 40
1.5
100
AcDbArc
 50
89.99998201390989
 51
179.9999640278209
  0
ARC
  5
1C8
330
1F
100
AcDbEntity
  8
1
  6
Continuous
 62
     7
370
     9
100
AcDbCircle
 10
467.0458710656056
 20
121.1679655359841
 30
0.0
 40
1.5
100
AcDbArc
 50
89.99998201390989
 51
179.9999640278209
  0
ARC
  5
1C9
330
1F
100
AcDbEntity
  8
1
  6
Continuous
 62
     7
370
     9
100
AcDbCircle
 10
518.0458710656056
 20
95.1679664896584
 30
0.0
 40
1.5
100
AcDbArc
 50
270.0000179860897
 51
0.0
  0
ARC
  5
1CA
330
1F
100
AcDbEntity
  8
1
  6
Continuous
 62
     7
370
     9
100
AcDbCircle
 10
518.0458710656056
 20
121.1679655359841
 30
0.0
 40
1.5
100
AcDbArc
 50
0.0
 51
89.99998201390989
  0
ARC
  5
1CB
330
1F
100
AcDbEntity
  8
1
  6
Continuous
 62
     7
370
     9
100
AcDbCircle
 10
505.5458710656056
 20
133.6679664896584
 30
0.0
 40
1.5
100
AcDbArc
 50
0.0
 51
89.99998201390989
  0
LINE
  5
1CC
330
1F
100
AcDbEntity
  8
1
  6
Continuous
 62
     7
370
     9
100
AcDbLine
 10
567.5458710656056
 20
129.5906168268776
 30
0.0
 11
540.5458729729543
 21
129.5906168268776
 31
0.0
  0
LINE
  5
1CD
330
1F
100
AcDbEntity
  8
1
  6
Continuous
 62
     7
370
     9
100
AcDbLine
 10
568.5458710656056
 20
130.1679674433327
 30
0.0
 11
539.5458710656056
 21
130.1679674433327
 31
0.0
  0
LINE
  5
1CE
330
1F
100
AcDbEntity
  8
1
  6
Continuous
 62
     7
370
     9
100
AcDbLine
 10
567.0458710656056
 20
81.16796744333271
 30
0.0
 11
541.0458710656056
 21
81.16796744333271
 31
0.0
  0
LINE
  5
1CF
330
1F
100
AcDbEntity
  8
1
  6
Continuous
 62
     7
370
     9
100
AcDbLine
 10
568.5458710656056
 20
82.66796744333271
 30
0.0
 11
568.5458710656056
 21
86.16796553598408
 31
0.0
  0
LINE
  5
1D0
330
1F
100
AcDbEntity
  8
1
  6
Continuous
 62
     7
370
     9
100
AcDbLine
 10
539.5458710656056
 20
82.66796744333271
 30
0.0
 11
539.5458710656056
 21
86.16796553598408
 31
0.0
  0
LINE
  5
1D1
330
1F
100
AcDbEntity
  8
1
  6
Continuous
 62
     7
370
     9
100
AcDbLine
 10
567.5458710656056
 20
86.74531043039326
 30
0.0
 11
567.5458710656056
 21
102.8764635370827
 31
0.0
  0
LINE
  5
1D2
330
1F
100
AcDbEntity
  8
1
  6
Continuous
 62
     7
370
     9
100
AcDbLine
 10
540.5458729729543
 20
86.74531424509053
 30
0.0
 11
540.5458729729543
 21
102.8764587687111
 31
0.0
  0
LINE
  5
1D3
330
1F
100
AcDbEntity
  8
1
  6
Continuous
 62
     7
370
     9
100
AcDbLine
 10
540.5458564682058
 20
86.7453399682982
 30
0.0
 11
539.5458564164675
 21
86.16799126068484
 31
0.0
  0
LINE
  5
1D4
330
1F
100
AcDbEntity
  8
1
  6
Continuous
 62
     7
370
     9
100
AcDbLine
 10
567.5458688390362
 20
86.74531778302938
 30
0.0
 11
568.5458701296347
 21
86.16796836016177
 31
0.0
  0
LINE
  5
1D5
330
1F
100
AcDbEntity
  8
1
  6
Continuous
 62
     7
370
     9
100
AcDbLine
 10
539.5458710656056
 20
133.6679674433327
 30
0.0
 11
539.5458710656056
 21
130.1679674433327
 31
0.0
  0
LINE
  5
1D6
330
1F
100
AcDbEntity
  8
1
  6
Continuous
 62
     7
370
     9
100
AcDbLine
 10
567.0458710656056
 20
135.1679674433327
 30
0.0
 11
541.0458710656056
 21
135.1679674433327
 31
0.0
  0
LINE
  5
1D7
330
1F
100
AcDbEntity
  8
1
  6
Continuous
 62
     7
370
     9
100
AcDbLine
 10
568.5458710656056
 20
133.6679674433327
 30
0.0
 11
568.5458710656056
 21
130.1679674433327
 31
0.0
  0
LINE
  5
1D8
330
1F
100
AcDbEntity
  8
1
  6
Continuous
 62
     7
370
     9
100
AcDbLine
 10
540.5458710656056
 20
129.5906196879006
 30
0.0
 11
540.5458710656056
 21
113.4594691117876
 31
0.0
  0
LINE
  5
1D9
330
1F
100
AcDbEntity
  8
1
  6
Continuous
 62
     7
370
     9
100
AcDbLine
 10
568.5458710656056
 20
86.16796362863545
 30
0.0
 11
539.5458710656056
 21
86.16796362863545
 31
0.0
  0
LINE
  5
1DA
330
1F
100
AcDbEntity
  8
1
  6
Continuous
 62
     7
370
     9
100
AcDbLine
 10
567.5458710656056
 20
86.74531424509053
 30
0.0
 11
540.5458729729543
 21
86.74531424509053
 31
0.0
  0
LINE
  5
1DB
330
1F
100
AcDbEntity
  8
1
  6
Continuous
 62
     7
370
     9
100
AcDbLine
 10
540.5458762710094
 20
129.5906352363909
 30
0.0
 11
539.5458745064517
 21
130.1679857456871
 31
0.0
  0
LINE
  5
1DC
330
1F
100
AcDbEntity
  8
1
  6
Continuous
 62
     7
370
     9
100
AcDbLine
 10
567.5458710656056
 20
129.5906196879006
 30
0.0
 11
567.5458710656056
 21
113.4594691117876
 31
0.0
  0
LINE
  5
1DD
330
1F
100
AcDbEntity
  8
1
  6
Continuous
 62
     7
370
     9
100
AcDbLine
 10
567.5458702956729
 20
129.5906237316375
 30
0.0
 11
568.5458648402977
 21
130.1679695800861
 31
0.0
  0
CIRCLE
  5
1DE
330
1F
100
AcDbEntity
  8
1
  6
Continuous
 62
     7
370
     9
100
AcDbCircle
 10
554.0458710656056
 20
108.1679664896584
 30
0.0
 40
14.5
  0
CIRCLE
  5
1DF
330
1F
100
AcDbEntity
  8
1
  6
Continuous
 62
     7
370
     9
100
AcDbCircle
 10
554.0458710656056
 20
108.1679664896584
 30
0.0
 40
10.47749996185303
  0
CIRCLE
  5
1E0
330
1F
100
AcDbEntity
  8
1
  6
Continuous
 62
     7
370
     9
100
AcDbCircle
 10
554.0458710656056
 20
108.1679664896584
 30
0.0
 40
10.85000038146973
  0
CIRCLE
  5
1E1
330
1F
100
AcDbEntity
  8
1
  6
Continuous
 62
     7
370
     9
100
AcDbCircle
 10
554.0458710656056
 20
108.1679664896584
 30
0.0
 40
8.699999809265137
  0
ARC
  5
1E2
330
1F
100
AcDbEntity
  8
1
  6
Continuous
 62
     7
370
     9
100
AcDbCircle
 10
567.0458710656056
 20
133.6679674433327
 30
0.0
 40
1.5
100
AcDbArc
 50
0.0
 51
89.99998201390989
  0
ARC
  5
1E3
330
1F
100
AcDbEntity
  8
1
  6
Continuous
 62
     7
370
     9
100
AcDbCircle
 10
541.0458710656056
 20
133.6679674433327
 30
0.0
 40
1.5
100
AcDbArc
 50
89.99998201390989
 51
179.9999640278219
  0
ARC
  5
1E4
330
1F
100
AcDbEntity
  8
1
  6
Continuous
 62
     7
370
     9
100
AcDbCircle
 10
567.0458710656056
 20
82.66796744333271
 30
0.0
 40
1.5
100
AcDbArc
 50
270.0000179860897
 51
0.0
  0
ARC
  5
1E5
330
1F
100
AcDbEntity
  8
1
  6
Continuous
 62
     7
370
     9
100
AcDbCircle
 10
541.0458710656056
 20
82.66796744333271
 30
0.0
 40
1.5
100
AcDbArc
 50
179.9999813306658
 51
270.0000179860897
  0
CIRCLE
  5
1E6
330
1F
100
AcDbEntity
  8
1
  6
Continuous
 62
     7
370
     9
100
AcDbCircle
 10
554.0458710656056
 20
108.1679655359841
 30
0.0
 40
9.3155
  0
LINE
  5
1E7
330
1F
100
AcDbEntity
  8
1
  6
Continuous
 62
     7
370
     9
100
AcDbLine
 10
630.5458710656056
 20
95.66796267496113
 30
0.0
 11
634.5458710656056
 21
95.66796267496113
 31
0.0
  0
LINE
  5
1E8
330
1F
100
AcDbEntity
  8
1
  6
Continuous
 62
     7
370
     9
100
AcDbLine
 10
630.5458710656056
 20
130.6679636286354
 30
0.0
 11
634.5458648144668
 21
130.6679636286354
 31
0.0
  0
LINE
  5
1E9
330
1F
100
AcDbEntity
  8
1
  6
Continuous
 62
     7
370
     9
100
AcDbLine
 10
643.0458710656056
 20
87.16796267496113
 30
0.0
 11
678.0458710656056
 21
87.16796267496113
 31
0.0
  0
LINE
  5
1EA
330
1F
100
AcDbEntity
  8
1
  6
Continuous
 62
     7
370
     9
100
AcDbLine
 10
645.0458710656056
 20
145.1679626749611
 30
0.0
 11
676.0458710656056
 21
145.1679626749611
 31
0.0
  0
LINE
  5
1EB
330
1F
100
AcDbEntity
  8
1
  6
Continuous
 62
     7
370
     9
100
AcDbLine
 10
645.0458710656056
 20
81.16796267496113
 30
0.0
 11
676.0458710656056
 21
81.16796267496113
 31
0.0
  0
LINE
  5
1EC
330
1F
100
AcDbEntity
  8
1
  6
Continuous
 62
     7
370
     9
100
AcDbLine
 10
692.5458710656056
 20
128.6679636286354
 30
0.0
 11
692.5458710656056
 21
97.66796267496113
 31
0.0
  0
LINE
  5
1ED
330
1F
100
AcDbEntity
  8
1
  6
Continuous
 62
     7
370
     9
100
AcDbLine
 10
628.5458710656056
 20
128.6679636286354
 30
0.0
 11
628.5458710656056
 21
97.66796267496113
 31
0.0
  0
LINE
  5
1EE
330
1F
100
AcDbEntity
  8
1
  6
Continuous
 62
     7
370
     9
100
AcDbLine
 10
643.0458710656056
 20
143.1679626749611
 30
0.0
 11
643.0458710656056
 21
139.1679731020737
 31
0.0
  0
LINE
  5
1EF
330
1F
100
AcDbEntity
  8
1
  6
Continuous
 62
     7
370
     9
100
AcDbLine
 10
678.0458710656056
 20
143.1679626749611
 30
0.0
 11
678.0458710656056
 21
139.1679518598223
 31
0.0
  0
LINE
  5
1F0
330
1F
100
AcDbEntity
  8
1
  6
Continuous
 62
     7
370
     9
100
AcDbLine
 10
644.0458710656056
 20
87.74531329141621
 30
0.0
 11
677.0458710656056
 21
87.74531329141621
 31
0.0
  0
LINE
  5
1F1
330
1F
100
AcDbEntity
  8
1
  6
Continuous
 62
     7
370
     9
100
AcDbLine
 10
686.5458786950002
 20
95.66796267496113
 30
0.0
 11
690.5458710656056
 21
95.66796267496113
 31
0.0
  0
LINE
  5
1F2
330
1F
100
AcDbEntity
  8
1
  6
Continuous
 62
     7
370
     9
100
AcDbLine
 10
644.0458710656056
 20
92.66796267496113
 30
0.0
 11
644.0458710656056
 21
87.74531329141621
 31
0.0
  0
LINE
  5
1F3
330
1F
100
AcDbEntity
  8
1
  6
Continuous
 62
     7
370
     9
100
AcDbLine
 10
643.0458701153897
 20
87.16796273835675
 30
0.0
 11
644.0458707444915
 21
87.74531330697172
 31
0.0
  0
LINE
  5
1F4
330
1F
100
AcDbEntity
  8
1
  6
Continuous
 62
     7
370
     9
100
AcDbLine
 10
686.545875714461
 20
130.6679636286354
 30
0.0
 11
690.5458710656056
 21
130.6679636286354
 31
0.0
  0
LINE
  5
1F5
330
1F
100
AcDbEntity
  8
1
  6
Continuous
 62
     7
370
     9
100
AcDbLine
 10
643.0458710656056
 20
87.16796267496113
 30
0.0
 11
643.0458710656056
 21
83.16796267496113
 31
0.0
  0
LINE
  5
1F6
330
1F
100
AcDbEntity
  8
1
  6
Continuous
 62
     7
370
     9
100
AcDbLine
 10
640.0458634362111
 20
129.66797125803
 30
0.0
 11
635.1232178673635
 21
129.66797125803
 31
0.0
  0
LINE
  5
1F7
330
1F
100
AcDbEntity
  8
1
  6
Continuous
 62
     7
370
     9
100
AcDbLine
 10
640.0458634362111
 20
96.66797030435566
 30
0.0
 11
635.1232178673635
 21
96.66797030435566
 31
0.0
  0
LINE
  5
1F8
330
1F
100
AcDbEntity
  8
1
  6
Continuous
 62
     7
370
     9
100
AcDbLine
 10
678.0458710656056
 20
87.16796267496113
 30
0.0
 11
678.0458710656056
 21
83.16796267496113
 31
0.0
  0
LINE
  5
1F9
330
1F
100
AcDbEntity
  8
1
  6
Continuous
 62
     7
370
     9
100
AcDbLine
 10
634.5458710656056
 20
130.6679636286354
 30
0.0
 11
634.5458710656056
 21
95.6679664896584
 31
0.0
  0
LINE
  5
1FA
330
1F
100
AcDbEntity
  8
1
  6
Continuous
 62
     7
370
     9
100
AcDbLine
 10
634.5458623082673
 20
130.6679679695033
 30
0.0
 11
635.1232126326177
 21
129.6679671993753
 31
0.0
  0
LINE
  5
1FB
330
1F
100
AcDbEntity
  8
1
  6
Continuous
 62
     7
370
     9
100
AcDbLine
 10
635.1232180673986
 20
96.66798218664903
 30
0.0
 11
634.5458672287095
 21
95.6679817134745
 31
0.0
  0
LINE
  5
1FC
330
1F
100
AcDbEntity
  8
1
  6
Continuous
 62
     7
370
     9
100
AcDbLine
 10
635.123225496758
 20
129.66797125803
 30
0.0
 11
635.123225496758
 21
96.6679664896584
 31
0.0
  0
LINE
  5
1FD
330
1F
100
AcDbEntity
  8
1
  6
Continuous
 62
     7
370
     9
100
AcDbLine
 10
677.0458710656056
 20
92.66796267496113
 30
0.0
 11
677.0458710656056
 21
87.74531329141621
 31
0.0
  0
LINE
  5
1FE
330
1F
100
AcDbEntity
  8
1
  6
Continuous
 62
     7
370
     9
100
AcDbLine
 10
686.5458786950002
 20
95.6679664896584
 30
0.0
 11
686.5458786950002
 21
130.6679636286354
 31
0.0
  0
LINE
  5
1FF
330
1F
100
AcDbEntity
  8
1
  6
Continuous
 62
     7
370
     9
100
AcDbLine
 10
677.0458681012583
 20
87.74531188071944
 30
0.0
 11
678.0458687303602
 21
87.16796131210448
 31
0.0
  0
LINE
  5
200
330
1F
100
AcDbEntity
  8
1
  6
Continuous
 62
     7
370
     9
100
AcDbLine
 10
685.9685242638478
 20
96.6679664896584
 30
0.0
 11
685.9685242638478
 21
129.6679636286354
 31
0.0
  0
LINE
  5
201
330
1F
100
AcDbEntity
  8
1
  6
Continuous
 62
     7
370
     9
100
AcDbLine
 10
686.5458631187739
 20
95.66796397463213
 30
0.0
 11
685.9685126315804
 21
96.66796465074276
 31
0.0
  0
LINE
  5
202
330
1F
100
AcDbEntity
  8
1
  6
Continuous
 62
     7
370
     9
100
AcDbLine
 10
681.0458748803029
 20
96.66796267496113
 30
0.0
 11
685.9685242638478
 21
96.66796267496113
 31
0.0
  0
LINE
  5
203
330
1F
100
AcDbEntity
  8
1
  6
Continuous
 62
     7
370
     9
100
AcDbLine
 10
685.968521219577
 20
129.6679564466768
 30
0.0
 11
686.5458718954231
 21
130.6679570138688
 31
0.0
  0
LINE
  5
204
330
1F
100
AcDbEntity
  8
1
  6
Continuous
 62
     7
370
     9
100
AcDbLine
 10
681.0458748803029
 20
129.6679636286354
 30
0.0
 11
685.9685242638478
 21
129.6679636286354
 31
0.0
  0
LINE
  5
205
330
1F
100
AcDbEntity
  8
1
  6
Continuous
 62
     7
370
     9
100
AcDbLine
 10
678.0458702482915
 20
139.167951387946
 30
0.0
 11
677.0458695251722
 21
138.5906009821741
 31
0.0
  0
LINE
  5
206
330
1F
100
AcDbEntity
  8
1
  6
Continuous
 62
     7
370
     9
100
AcDbLine
 10
677.0458786950002
 20
133.6679703043557
 30
0.0
 11
677.0458786950002
 21
138.5906196879006
 31
0.0
  0
LINE
  5
207
330
1F
100
AcDbEntity
  8
1
  6
Continuous
 62
     7
370
     9
100
AcDbLine
 10
644.0458868424386
 20
138.5906135363725
 30
0.0
 11
643.0458863222553
 21
139.16796429364
 31
0.0
  0
LINE
  5
208
330
1F
100
AcDbEntity
  8
1
  6
Continuous
 62
     7
370
     9
100
AcDbLine
 10
644.0458786950002
 20
133.6679703043557
 30
0.0
 11
644.0458786950002
 21
138.5906196879006
 31
0.0
  0
LINE
  5
209
330
1F
100
AcDbEntity
  8
1
  6
Continuous
 62
     7
370
     9
100
AcDbLine
 10
644.0458765023549
 20
129.6679625486643
 30
0.0
 11
659.8387664628115
 21
113.8750725882077
 31
0.0
  0
LINE
  5
20A
330
1F
100
AcDbEntity
  8
1
  6
Continuous
 62
     7
370
     9
100
AcDbLine
 10
644.0458765023549
 20
96.66796470860655
 30
0.0
 11
659.8387664628116
 21
112.4608546690632
 31
0.0
  0
LINE
  5
20B
330
1F
100
AcDbEntity
  8
1
  6
Continuous
 62
     7
370
     9
100
AcDbLine
 10
661.2529773245783
 20
112.4608563252354
 30
0.0
 11
677.0458716386054
 21
96.66796201120823
 31
0.0
  0
LINE
  5
20C
330
1F
100
AcDbEntity
  8
1
  6
Continuous
 62
     7
370
     9
100
AcDbLine
 10
643.0458710656056
 20
139.1679645823098
 30
0.0
 11
678.0458710656056
 21
139.1679645823098
 31
0.0
  0
LINE
  5
20D
330
1F
100
AcDbEntity
  8
1
  6
Continuous
 62
     7
370
     9
100
AcDbLine
 10
644.0458710656056
 20
138.5906139658547
 30
0.0
 11
677.0458710656056
 21
138.5906139658547
 31
0.0
  0
LINE
  5
20E
330
1F
100
AcDbEntity
  8
1
  6
Continuous
 62
     7
370
     9
100
AcDbLine
 10
661.2529773245783
 20
113.8750709320355
 30
0.0
 11
677.0458716386054
 21
129.6679652460627
 31
0.0
  0
ARC
  5
20F
330
1F
100
AcDbEntity
  8
1
  6
Continuous
 62
     7
370
     9
100
AcDbCircle
 10
690.5458710656056
 20
97.66796267496113
 30
0.0
 40
2.0
100
AcDbArc
 50
270.0000179860887
 51
0.0
  0
ARC
  5
210
330
1F
100
AcDbEntity
  8
1
  6
Continuous
 62
     7
370
     9
100
AcDbCircle
 10
690.5458710656056
 20
128.6679636286354
 30
0.0
 40
2.0
100
AcDbArc
 50
0.0
 51
89.99998201391097
  0
ARC
  5
211
330
1F
100
AcDbEntity
  8
1
  6
Continuous
 62
     7
370
     9
100
AcDbCircle
 10
676.0458710656056
 20
143.1679626749611
 30
0.0
 40
2.0
100
AcDbArc
 50
0.0
 51
89.99998201391097
  0
ARC
  5
212
330
1F
100
AcDbEntity
  8
1
  6
Continuous
 62
     7
370
     9
100
AcDbCircle
 10
645.0458710656056
 20
143.1679626749611
 30
0.0
 40
2.0
100
AcDbArc
 50
89.99998201391097
 51
179.9999640278211
  0
ARC
  5
213
330
1F
100
AcDbEntity
  8
1
  6
Continuous
 62
     7
370
     9
100
AcDbCircle
 10
630.5458710656056
 20
128.6679636286354
 30
0.0
 40
2.0
100
AcDbArc
 50
89.99998201391097
 51
179.9999640278211
  0
ARC
  5
214
330
1F
100
AcDbEntity
  8
1
  6
Continuous
 62
     7
370
     9
100
AcDbCircle
 10
630.5458710656056
 20
97.66796267496113
 30
0.0
 40
2.0
100
AcDbArc
 50
179.9999813306655
 51
270.0000179860887
  0
ARC
  5
215
330
1F
100
AcDbEntity
  8
1
  6
Continuous
 62
     7
370
     9
100
AcDbCircle
 10
645.0458710656056
 20
83.16796267496113
 30
0.0
 40
2.0
100
AcDbArc
 50
179.9999813306655
 51
270.0000179860887
  0
ARC
  5
216
330
1F
100
AcDbEntity
  8
1
  6
Continuous
 62
     7
370
     9
100
AcDbCircle
 10
676.0458710656056
 20
83.16796267496113
 30
0.0
 40
2.0
100
AcDbArc
 50
270.0000179860887
 51
0.0
  0
ARC
  5
217
330
1F
100
AcDbEntity
  8
1
  6
Continuous
 62
     7
370
     9
100
AcDbCircle
 10
640.0458634362111
 20
92.66797411905293
 30
0.0
 40
4.0
100
AcDbArc
 50
359.9999863396221
 51
89.99994103277595
  0
ARC
  5
218
330
1F
100
AcDbEntity
  8
1
  6
Continuous
 62
     7
370
     9
100
AcDbCircle
 10
640.0458786950002
 20
133.6679655359841
 30
0.0
 40
4.0
100
AcDbArc
 50
270.0000179860887
 51
0.0
  0
ARC
  5
219
330
1F
100
AcDbEntity
  8
1
  6
Continuous
 62
     7
370
     9
100
AcDbCircle
 10
681.0458710656056
 20
133.6679636286354
 30
0.0
 40
4.0
100
AcDbArc
 50
179.9999813306651
 51
270.0000179860887
  0
ARC
  5
21A
330
1F
100
AcDbEntity
  8
1
  6
Continuous
 62
     7
370
     9
100
AcDbCircle
 10
681.0458710656056
 20
92.66796267496113
 30
0.0
 40
4.0
100
AcDbArc
 50
89.99998201391097
 51
179.9999640278213
  0
LINE
  5
21B
330
1F
100
AcDbEntity
  8
1
  6
Continuous
 62
     7
370
     9
100
AcDbLine
 10
746.5458710656056
 20
87.74531329141621
 30
0.0
 11
713.5458710656056
 21
87.74531329141621
 31
0.0
  0
LINE
  5
21C
330
1F
100
AcDbEntity
  8
1
  6
Continuous
 62
     7
370
     9
100
AcDbLine
 10
747.5458710656056
 20
87.16796267496113
 30
0.0
 11
712.5458710656056
 21
87.16796267496113
 31
0.0
  0
LINE
  5
21D
330
1F
100
AcDbEntity
  8
1
  6
Continuous
 62
     7
370
     9
100
AcDbLine
 10
747.5458710656056
 20
139.1679645823098
 30
0.0
 11
712.5458710656056
 21
139.1679645823098
 31
0.0
  0
LINE
  5
21E
330
1F
100
AcDbEntity
  8
1
  6
Continuous
 62
     7
370
     9
100
AcDbLine
 10
746.5458707352838
 20
138.5906117801229
 30
0.0
 11
747.5458643409758
 21
139.1679592548513
 31
0.0
  0
LINE
  5
21F
330
1F
100
AcDbEntity
  8
1
  6
Continuous
 62
     7
370
     9
100
AcDbLine
 10
747.5458710656056
 20
143.1679626749611
 30
0.0
 11
747.5458710656056
 21
139.1679636286354
 31
0.0
  0
LINE
  5
220
330
1F
100
AcDbEntity
  8
1
  6
Continuous
 62
     7
370
     9
100
AcDbLine
 10
745.5458710656056
 20
145.1679626749611
 30
0.0
 11
714.5458710656056
 21
145.1679626749611
 31
0.0
  0
LINE
  5
221
330
1F
100
AcDbEntity
  8
1
  6
Continuous
 62
     7
370
     9
100
AcDbLine
 10
713.5458710656056
 20
138.5906130121804
 30
0.0
 11
713.5458710656056
 21
118.9989155234807
 31
0.0
  0
LINE
  5
222
330
1F
100
AcDbEntity
  8
1
  6
Continuous
 62
     7
370
     9
100
AcDbLine
 10
746.5458710656056
 20
138.5906130121804
 30
0.0
 11
746.5458710656056
 21
118.9989155234807
 31
0.0
  0
LINE
  5
223
330
1F
100
AcDbEntity
  8
1
  6
Continuous
 62
     7
370
     9
100
AcDbLine
 10
712.5458663131343
 20
139.1679643643441
 30
0.0
 11
713.5458667863089
 21
138.590613525655
 31
0.0
  0
LINE
  5
224
330
1F
100
AcDbEntity
  8
1
  6
Continuous
 62
     7
370
     9
100
AcDbLine
 10
746.5458716010563
 20
87.74531240043478
 30
0.0
 11
747.5458654669823
 21
87.16796537644444
 31
0.0
  0
LINE
  5
225
330
1F
100
AcDbEntity
  8
1
  6
Continuous
 62
     7
370
     9
100
AcDbLine
 10
712.5458695506842
 20
87.1679635766666
 30
0.0
 11
713.5458700238588
 21
87.74531441535567
 31
0.0
  0
LINE
  5
226
330
1F
100
AcDbEntity
  8
1
  6
Continuous
 62
     7
370
     9
100
AcDbLine
 10
746.5458710656056
 20
87.74531329141621
 30
0.0
 11
746.5458710656056
 21
107.3370109842873
 31
0.0
  0
LINE
  5
227
330
1F
100
AcDbEntity
  8
1
  6
Continuous
 62
     7
370
     9
100
AcDbLine
 10
713.5458710656056
 20
87.74531329141621
 30
0.0
 11
713.5458710656056
 21
107.3370109842873
 31
0.0
  0
LINE
  5
228
330
1F
100
AcDbEntity
  8
1
  6
Continuous
 62
     7
370
     9
100
AcDbLine
 10
747.5458710656056
 20
83.16796267496113
 30
0.0
 11
747.5458710656056
 21
87.16796267496113
 31
0.0
  0
LINE
  5
229
330
1F
100
AcDbEntity
  8
1
  6
Continuous
 62
     7
370
     9
100
AcDbLine
 10
712.5458710656056
 20
83.16796267496113
 30
0.0
 11
712.5458710656056
 21
87.16796267496113
 31
0.0
  0
LINE
  5
22A
330
1F
100
AcDbEntity
  8
1
  6
Continuous
 62
     7
370
     9
100
AcDbLine
 10
746.5458710656056
 20
138.5906139658547
 30
0.0
 11
713.5458710656056
 21
138.5906139658547
 31
0.0
  0
LINE
  5
22B
330
1F
100
AcDbEntity
  8
1
  6
Continuous
 62
     7
370
     9
100
AcDbLine
 10
745.5458710656056
 20
81.16796267496113
 30
0.0
 11
714.5458710656056
 21
81.16796267496113
 31
0.0
  0
LINE
  5
22C
330
1F
100
AcDbEntity
  8
1
  6
Continuous
 62
     7
370
     9
100
AcDbLine
 10
712.5458710656056
 20
143.1679626749611
 30
0.0
 11
712.5458710656056
 21
139.1679636286354
 31
0.0
  0
CIRCLE
  5
22D
330
1F
100
AcDbEntity
  8
1
  6
Continuous
 62
     7
370
     9
100
AcDbCircle
 10
730.0458710656056
 20
113.1679636286354
 30
0.0
 40
17.5
  0
CIRCLE
  5
22E
330
1F
100
AcDbEntity
  8
1
  6
Continuous
 62
     7
370
     9
100
AcDbCircle
 10
730.0458710656056
 20
113.1679636286354
 30
0.0
 40
13.55000019073486
  0
CIRCLE
  5
22F
330
1F
100
AcDbEntity
  8
1
  6
Continuous
 62
     7
370
     9
100
AcDbCircle
 10
730.0458710656056
 20
113.1679636286354
 30
0.0
 40
13.22049999237061
  0
CIRCLE
  5
230
330
1F
100
AcDbEntity
  8
1
  6
Continuous
 62
     7
370
     9
100
AcDbCircle
 10
730.0458710656056
 20
113.1679636286354
 30
0.0
 40
11.35000038146973
  0
ARC
  5
231
330
1F
100
AcDbEntity
  8
1
  6
Continuous
 62
     7
370
     9
100
AcDbCircle
 10
745.5458710656056
 20
143.1679626749611
 30
0.0
 40
2.0
100
AcDbArc
 50
0.0
 51
89.9999820139077
  0
ARC
  5
232
330
1F
100
AcDbEntity
  8
1
  6
Continuous
 62
     7
370
     9
100
AcDbCircle
 10
714.5458710656056
 20
143.1679626749611
 30
0.0
 40
2.0
100
AcDbArc
 50
89.9999820139077
 51
180.0000186693349
  0
ARC
  5
233
330
1F
100
AcDbEntity
  8
1
  6
Continuous
 62
     7
370
     9
100
AcDbCircle
 10
745.5458710656056
 20
83.16796267496113
 30
0.0
 40
2.0
100
AcDbArc
 50
270.000017986092
 51
0.0
  0
ARC
  5
234
330
1F
100
AcDbEntity
  8
1
  6
Continuous
 62
     7
370
     9
100
AcDbCircle
 10
714.5458710656056
 20
83.16796267496113
 30
0.0
 40
2.0
100
AcDbArc
 50
179.9999813306655
 51
270.000017986092
  0
CIRCLE
  5
235
330
1F
100
AcDbEntity
  8
1
  6
Continuous
 62
     7
370
     9
100
AcDbCircle
 10
730.0458710656056
 20
113.1679636286354
 30
0.0
 40
12.0585
  0
LINE
  5
236
330
1F
100
AcDbEntity
  8
1
  6
Continuous
 62
     7
370
     9
100
AcDbLine
 10
809.5458710656056
 20
98.16796267496113
 30
0.0
 11
813.5458710656056
 21
98.16796267496113
 31
0.0
  0
LINE
  5
237
330
1F
100
AcDbEntity
  8
1
  6
Continuous
 62
     7
370
     9
100
AcDbLine
 10
809.5458710656056
 20
140.1679636286354
 30
0.0
 11
813.5457971673397
 21
140.1679636286354
 31
0.0
  0
LINE
  5
238
330
1F
100
AcDbEntity
  8
1
  6
Continuous
 62
     7
370
     9
100
AcDbLine
 10
824.5458710656056
 20
87.16796267496113
 30
0.0
 11
866.5458710656056
 21
87.16796267496113
 31
0.0
  0
LINE
  5
239
330
1F
100
AcDbEntity
  8
1
  6
Continuous
 62
     7
370
     9
100
AcDbLine
 10
826.5458710656056
 20
157.1679626749611
 30
0.0
 11
864.5458710656056
 21
157.1679626749611
 31
0.0
  0
LINE
  5
23A
330
1F
100
AcDbEntity
  8
1
  6
Continuous
 62
     7
370
     9
100
AcDbLine
 10
826.5458710656056
 20
81.16796267496113
 30
0.0
 11
864.5458710656056
 21
81.16796267496113
 31
0.0
  0
LINE
  5
23B
330
1F
100
AcDbEntity
  8
1
  6
Continuous
 62
     7
370
     9
100
AcDbLine
 10
883.5458710656056
 20
138.1679636286354
 30
0.0
 11
883.5458710656056
 21
100.1679626749611
 31
0.0
  0
LINE
  5
23C
330
1F
100
AcDbEntity
  8
1
  6
Continuous
 62
     7
370
     9
100
AcDbLine
 10
807.5458710656056
 20
138.1679636286354
 30
0.0
 11
807.5458710656056
 21
100.1679626749611
 31
0.0
  0
LINE
  5
23D
330
1F
100
AcDbEntity
  8
1
  6
Continuous
 62
     7
370
     9
100
AcDbLine
 10
824.5458710656056
 20
155.1679626749611
 30
0.0
 11
824.5458710656056
 21
151.1679776915945
 31
0.0
  0
LINE
  5
23E
330
1F
100
AcDbEntity
  8
1
  6
Continuous
 62
     7
370
     9
100
AcDbLine
 10
866.5458710656056
 20
155.1679626749611
 30
0.0
 11
866.5458710656056
 21
151.1679716208227
 31
0.0
  0
LINE
  5
23F
330
1F
100
AcDbEntity
  8
1
  6
Continuous
 62
     7
370
     9
100
AcDbLine
 10
825.5458710656056
 20
87.74531329141621
 30
0.0
 11
865.5458710656056
 21
87.74531329141621
 31
0.0
  0
LINE
  5
240
330
1F
100
AcDbEntity
  8
1
  6
Continuous
 62
     7
370
     9
100
AcDbLine
 10
877.5458786950002
 20
98.16796267496113
 30
0.0
 11
881.5458710656056
 21
98.16796267496113
 31
0.0
  0
LINE
  5
241
330
1F
100
AcDbEntity
  8
1
  6
Continuous
 62
     7
370
     9
100
AcDbLine
 10
825.5458710656056
 20
94.16797030435566
 30
0.0
 11
825.5458710656056
 21
87.74531329141621
 31
0.0
  0
LINE
  5
242
330
1F
100
AcDbEntity
  8
1
  6
Continuous
 62
     7
370
     9
100
AcDbLine
 10
824.5458687307125
 20
87.16796306802081
 30
0.0
 11
825.5458693598144
 21
87.74531363663579
 31
0.0
  0
LINE
  5
243
330
1F
100
AcDbEntity
  8
1
  6
Continuous
 62
     7
370
     9
100
AcDbLine
 10
877.5458665224547
 20
140.1679636286354
 30
0.0
 11
881.5458710656056
 21
140.1679636286354
 31
0.0
  0
LINE
  5
244
330
1F
100
AcDbEntity
  8
1
  6
Continuous
 62
     7
370
     9
100
AcDbLine
 10
824.5458710656056
 20
87.16796441607181
 30
0.0
 11
824.5458710656056
 21
83.16796267496113
 31
0.0
  0
LINE
  5
245
330
1F
100
AcDbEntity
  8
1
  6
Continuous
 62
     7
370
     9
100
AcDbLine
 10
820.5458786950002
 20
139.16797125803
 30
0.0
 11
814.1232178673635
 21
139.16797125803
 31
0.0
  0
LINE
  5
246
330
1F
100
AcDbEntity
  8
1
  6
Continuous
 62
     7
370
     9
100
AcDbLine
 10
820.5458710656056
 20
99.16797030435566
 30
0.0
 11
814.1232178673635
 21
99.16797030435566
 31
0.0
  0
LINE
  5
247
330
1F
100
AcDbEntity
  8
1
  6
Continuous
 62
     7
370
     9
100
AcDbLine
 10
866.5458710656056
 20
87.16796267496113
 30
0.0
 11
866.5458710656056
 21
83.16796267496113
 31
0.0
  0
LINE
  5
248
330
1F
100
AcDbEntity
  8
1
  6
Continuous
 62
     7
370
     9
100
AcDbLine
 10
813.5458710656056
 20
140.1679636286354
 30
0.0
 11
813.5458710656056
 21
98.1679664896584
 31
0.0
  0
LINE
  5
249
330
1F
100
AcDbEntity
  8
1
  6
Continuous
 62
     7
370
     9
100
AcDbLine
 10
813.5458068201569
 20
140.1679469094543
 30
0.0
 11
814.1231571445074
 21
139.1679461393262
 31
0.0
  0
LINE
  5
24A
330
1F
100
AcDbEntity
  8
1
  6
Continuous
 62
     7
370
     9
100
AcDbLine
 10
814.1232240590524
 20
99.16797860771698
 30
0.0
 11
813.5458732203633
 21
98.16797813454247
 31
0.0
  0
LINE
  5
24B
330
1F
100
AcDbEntity
  8
1
  6
Continuous
 62
     7
370
     9
100
AcDbLine
 10
814.123225496758
 20
139.16797125803
 30
0.0
 11
814.123225496758
 21
99.1679664896584
 31
0.0
  0
LINE
  5
24C
330
1F
100
AcDbEntity
  8
1
  6
Continuous
 62
     7
370
     9
100
AcDbLine
 10
865.5458710656056
 20
94.16796267496113
 30
0.0
 11
865.5458710656056
 21
87.74531329141621
 31
0.0
  0
LINE
  5
24D
330
1F
100
AcDbEntity
  8
1
  6
Continuous
 62
     7
370
     9
100
AcDbLine
 10
877.5458786950002
 20
98.1679664896584
 30
0.0
 11
877.5458786950002
 21
140.1679636286354
 31
0.0
  0
LINE
  5
24E
330
1F
100
AcDbEntity
  8
1
  6
Continuous
 62
     7
370
     9
100
AcDbLine
 10
865.5458656712384
 20
87.74530560313389
 30
0.0
 11
866.5458679521528
 21
87.16795408084465
 31
0.0
  0
LINE
  5
24F
330
1F
100
AcDbEntity
  8
1
  6
Continuous
 62
     7
370
     9
100
AcDbLine
 10
876.9685242638478
 20
99.1679664896584
 30
0.0
 11
876.9685242638478
 21
139.1679636286354
 31
0.0
  0
LINE
  5
250
330
1F
100
AcDbEntity
  8
1
  6
Continuous
 62
     7
370
     9
100
AcDbLine
 10
877.5458488127977
 20
98.16795529793978
 30
0.0
 11
876.9684982659995
 21
99.1679560772887
 31
0.0
  0
LINE
  5
251
330
1F
100
AcDbEntity
  8
1
  6
Continuous
 62
     7
370
     9
100
AcDbLine
 10
870.5458710656056
 20
99.16796267496113
 30
0.0
 11
876.9685242638478
 21
99.16796267496113
 31
0.0
  0
LINE
  5
252
330
1F
100
AcDbEntity
  8
1
  6
Continuous
 62
     7
370
     9
100
AcDbLine
 10
876.9685156116468
 20
139.1679626544777
 30
0.0
 11
877.5458662874929
 21
140.1679632216697
 31
0.0
  0
LINE
  5
253
330
1F
100
AcDbEntity
  8
1
  6
Continuous
 62
     7
370
     9
100
AcDbLine
 10
870.5458786950002
 20
139.1679636286354
 30
0.0
 11
876.9685242638478
 21
139.1679636286354
 31
0.0
  0
LINE
  5
254
330
1F
100
AcDbEntity
  8
1
  6
Continuous
 62
     7
370
     9
100
AcDbLine
 10
866.5458630732862
 20
151.1679670064572
 30
0.0
 11
865.5458623501669
 21
150.5906166006852
 31
0.0
  0
LINE
  5
255
330
1F
100
AcDbEntity
  8
1
  6
Continuous
 62
     7
370
     9
100
AcDbLine
 10
865.5458786950002
 20
144.1679636286354
 30
0.0
 11
865.5458786950002
 21
150.5906196879006
 31
0.0
  0
LINE
  5
256
330
1F
100
AcDbEntity
  8
1
  6
Continuous
 62
     7
370
     9
100
AcDbLine
 10
825.5458884970255
 20
150.5906171706167
 30
0.0
 11
824.5458879768422
 21
151.1679679278843
 31
0.0
  0
LINE
  5
257
330
1F
100
AcDbEntity
  8
1
  6
Continuous
 62
     7
370
     9
100
AcDbLine
 10
825.5458786950002
 20
144.16797125803
 30
0.0
 11
825.5458786950002
 21
150.5906196879006
 31
0.0
  0
LINE
  5
258
330
1F
100
AcDbEntity
  8
1
  6
Continuous
 62
     7
370
     9
100
AcDbLine
 10
825.5458689653157
 20
99.16796868153443
 30
0.0
 11
844.8387647734976
 21
118.4608563583707
 31
0.0
  0
LINE
  5
259
330
1F
100
AcDbEntity
  8
1
  6
Continuous
 62
     7
370
     9
100
AcDbLine
 10
846.2529773245783
 20
118.4608563252353
 30
0.0
 11
865.5458713679712
 21
99.16796228184239
 31
0.0
  0
LINE
  5
25A
330
1F
100
AcDbEntity
  8
1
  6
Continuous
 62
     7
370
     9
100
AcDbLine
 10
846.2529773245783
 20
119.8750709320356
 30
0.0
 11
865.5458713679712
 21
139.1679649754285
 31
0.0
  0
LINE
  5
25B
330
1F
100
AcDbEntity
  8
1
  6
Continuous
 62
     7
370
     9
100
AcDbLine
 10
825.5458689653155
 20
139.1679585757365
 30
0.0
 11
844.8387647734976
 21
119.8750708989002
 31
0.0
  0
LINE
  5
25C
330
1F
100
AcDbEntity
  8
1
  6
Continuous
 62
     7
370
     9
100
AcDbLine
 10
824.5458710656056
 20
151.1679645823098
 30
0.0
 11
866.5458710656056
 21
151.1679645823098
 31
0.0
  0
LINE
  5
25D
330
1F
100
AcDbEntity
  8
1
  6
Continuous
 62
     7
370
     9
100
AcDbLine
 10
825.5458710656056
 20
150.5906139658547
 30
0.0
 11
865.5458710656056
 21
150.5906139658547
 31
0.0
  0
ARC
  5
25E
330
1F
100
AcDbEntity
  8
1
  6
Continuous
 62
     7
370
     9
100
AcDbCircle
 10
881.5458710656056
 20
100.1679626749611
 30
0.0
 40
2.0
100
AcDbArc
 50
270.0000179860887
 51
0.0
  0
ARC
  5
25F
330
1F
100
AcDbEntity
  8
1
  6
Continuous
 62
     7
370
     9
100
AcDbCircle
 10
881.5458710656056
 20
138.1679636286354
 30
0.0
 40
2.0
100
AcDbArc
 50
0.0
 51
89.99998201391097
  0
ARC
  5
260
330
1F
100
AcDbEntity
  8
1
  6
Continuous
 62
     7
370
     9
100
AcDbCircle
 10
864.5458710656056
 20
155.1679626749611
 30
0.0
 40
2.0
100
AcDbArc
 50
0.0
 51
89.99998201391097
  0
ARC
  5
261
330
1F
100
AcDbEntity
  8
1
  6
Continuous
 62
     7
370
     9
100
AcDbCircle
 10
826.5458710656056
 20
155.1679626749611
 30
0.0
 40
2.0
100
AcDbArc
 50
89.99998201391097
 51
179.9999640278219
  0
ARC
  5
262
330
1F
100
AcDbEntity
  8
1
  6
Continuous
 62
     7
370
     9
100
AcDbCircle
 10
870.5458710656056
 20
94.16796267496113
 30
0.0
 40
5.0
100
AcDbArc
 50
89.99998201391031
 51
179.9999640278213
  0
ARC
  5
263
330
1F
100
AcDbEntity
  8
1
  6
Continuous
 62
     7
370
     9
100
AcDbCircle
 10
809.5458710656056
 20
138.1679636286354
 30
0.0
 40
2.0
100
AcDbArc
 50
89.99998201391097
 51
179.9999640278219
  0
ARC
  5
264
330
1F
100
AcDbEntity
  8
1
  6
Continuous
 62
     7
370
     9
100
AcDbCircle
 10
809.5458710656056
 20
100.1679626749611
 30
0.0
 40
2.0
100
AcDbArc
 50
179.9999813306647
 51
270.0000179860887
  0
ARC
  5
265
330
1F
100
AcDbEntity
  8
1
  6
Continuous
 62
     7
370
     9
100
AcDbCircle
 10
826.5458710656056
 20
83.16796267496113
 30
0.0
 40
2.0
100
AcDbArc
 50
179.9999813306647
 51
270.0000179860887
  0
ARC
  5
266
330
1F
100
AcDbEntity
  8
1
  6
Continuous
 62
     7
370
     9
100
AcDbCircle
 10
864.5458710656056
 20
83.16796267496113
 30
0.0
 40
2.0
100
AcDbArc
 50
270.0000179860887
 51
0.0
  0
ARC
  5
267
330
1F
100
AcDbEntity
  8
1
  6
Continuous
 62
     7
370
     9
100
AcDbCircle
 10
820.5458786950002
 20
144.16797125803
 30
0.0
 40
5.0
100
AcDbArc
 50
270.0000179860893
 51
0.0
  0
ARC
  5
268
330
1F
100
AcDbEntity
  8
1
  6
Continuous
 62
     7
370
     9
100
AcDbCircle
 10
870.5458786950002
 20
144.1679636286354
 30
0.0
 40
5.0
100
AcDbArc
 50
179.9999813306654
 51
270.0000179860893
  0
ARC
  5
269
330
1F
100
AcDbEntity
  8
1
  6
Continuous
 62
     7
370
     9
100
AcDbCircle
 10
820.5458710656056
 20
94.16797030435566
 30
0.0
 40
5.0
100
AcDbArc
 50
0.0
 51
89.99998201391031
  0
LINE
  5
26A
330
1F
100
AcDbEntity
  8
1
  6
Continuous
 62
     7
370
     9
100
AcDbLine
 10
944.5458710656056
 20
87.74531424509053
 30
0.0
 11
904.5458710656056
 21
87.74531424509053
 31
0.0
  0
LINE
  5
26B
330
1F
100
AcDbEntity
  8
1
  6
Continuous
 62
     7
370
     9
100
AcDbLine
 10
945.5458710656056
 20
87.16796362863545
 30
0.0
 11
903.5458710656056
 21
87.16796362863545
 31
0.0
  0
LINE
  5
26C
330
1F
100
AcDbEntity
  8
1
  6
Continuous
 62
     7
370
     9
100
AcDbLine
 10
944.5458744707992
 20
150.5906033643025
 30
0.0
 11
945.545868076491
 21
151.1679508390309
 31
0.0
  0
LINE
  5
26D
330
1F
100
AcDbEntity
  8
1
  6
Continuous
 62
     7
370
     9
100
AcDbLine
 10
945.5458710656056
 20
155.1679636286354
 30
0.0
 11
945.5458710656056
 21
151.1679636286354
 31
0.0
  0
LINE
  5
26E
330
1F
100
AcDbEntity
  8
1
  6
Continuous
 62
     7
370
     9
100
AcDbLine
 10
943.5458786950002
 20
157.1679636286354
 30
0.0
 11
905.5458748803029
 21
157.1679636286354
 31
0.0
  0
LINE
  5
26F
330
1F
100
AcDbEntity
  8
1
  6
Continuous
 62
     7
370
     9
100
AcDbLine
 10
904.5458710656056
 20
150.5906130121804
 30
0.0
 11
904.5458710656056
 21
125.5710888197426
 31
0.0
  0
LINE
  5
270
330
1F
100
AcDbEntity
  8
1
  6
Continuous
 62
     7
370
     9
100
AcDbLine
 10
944.5458710656056
 20
150.5906130121804
 30
0.0
 11
944.5458710656056
 21
125.5710888197426
 31
0.0
  0
LINE
  5
271
330
1F
100
AcDbEntity
  8
1
  6
Continuous
 62
     7
370
     9
100
AcDbLine
 10
903.545866548901
 20
151.1679659336133
 30
0.0
 11
904.5458670220755
 21
150.5906150949243
 31
0.0
  0
LINE
  5
272
330
1F
100
AcDbEntity
  8
1
  6
Continuous
 62
     7
370
     9
100
AcDbLine
 10
944.5458708884524
 20
87.74531191260814
 30
0.0
 11
945.5458647543783
 21
87.1679648886178
 31
0.0
  0
LINE
  5
273
330
1F
100
AcDbEntity
  8
1
  6
Continuous
 62
     7
370
     9
100
AcDbLine
 10
903.5458659717523
 20
87.16797052199468
 30
0.0
 11
904.5458664449268
 21
87.7453213606837
 31
0.0
  0
LINE
  5
274
330
1F
100
AcDbEntity
  8
1
  6
Continuous
 62
     7
370
     9
100
AcDbLine
 10
944.5458710656056
 20
87.74531424509053
 30
0.0
 11
944.5458710656056
 21
112.7648397730446
 31
0.0
  0
LINE
  5
275
330
1F
100
AcDbEntity
  8
1
  6
Continuous
 62
     7
370
     9
100
AcDbLine
 10
904.5458710656056
 20
87.74531424509053
 30
0.0
 11
904.5458710656056
 21
112.7648397730446
 31
0.0
  0
LINE
  5
276
330
1F
100
AcDbEntity
  8
1
  6
Continuous
 62
     7
370
     9
100
AcDbLine
 10
945.5458710656056
 20
83.16796362863545
 30
0.0
 11
945.5458710656056
 21
87.16796362863545
 31
0.0
  0
LINE
  5
277
330
1F
100
AcDbEntity
  8
1
  6
Continuous
 62
     7
370
     9
100
AcDbLine
 10
903.5458710656056
 20
83.16796362863545
 30
0.0
 11
903.5458710656056
 21
87.16796362863545
 31
0.0
  0
LINE
  5
278
330
1F
100
AcDbEntity
  8
1
  6
Continuous
 62
     7
370
     9
100
AcDbLine
 10
943.5458710656056
 20
81.16796362863545
 30
0.0
 11
905.5458710656056
 21
81.16796362863545
 31
0.0
  0
LINE
  5
279
330
1F
100
AcDbEntity
  8
1
  6
Continuous
 62
     7
370
     9
100
AcDbLine
 10
903.5458710656056
 20
155.1679636286354
 30
0.0
 11
903.5458710656056
 21
151.1679636286354
 31
0.0
  0
LINE
  5
27A
330
1F
100
AcDbEntity
  8
1
  6
Continuous
 62
     7
370
     9
100
AcDbLine
 10
945.5458698255097
 20
151.1679636286354
 30
0.0
 11
903.5458698255097
 21
151.1679636286354
 31
0.0
  0
LINE
  5
27B
330
1F
100
AcDbEntity
  8
1
  6
Continuous
 62
     7
370
     9
100
AcDbLine
 10
944.5458698478839
 20
150.5906130121804
 30
0.0
 11
904.5458698478838
 21
150.5906130121804
 31
0.0
  0
CIRCLE
  5
27C
330
1F
100
AcDbEntity
  8
1
  6
Continuous
 62
     7
370
     9
100
AcDbCircle
 10
924.5458710656056
 20
119.1679645823098
 30
0.0
 40
17.04999923706055
  0
CIRCLE
  5
27D
330
1F
100
AcDbEntity
  8
1
  6
Continuous
 62
     7
370
     9
100
AcDbCircle
 10
924.5458710656056
 20
119.1679645823098
 30
0.0
 40
16.6245002746582
  0
CIRCLE
  5
27E
330
1F
100
AcDbEntity
  8
1
  6
Continuous
 62
     7
370
     9
100
AcDbCircle
 10
924.5458710656056
 20
119.1679645823098
 30
0.0
 40
21.0
  0
ARC
  5
27F
330
1F
100
AcDbEntity
  8
1
  6
Continuous
 62
     7
370
     9
100
AcDbCircle
 10
943.5458710656056
 20
155.1679636286354
 30
0.0
 40
2.0
100
AcDbArc
 50
0.0
 51
89.99998201391097
  0
ARC
  5
280
330
1F
100
AcDbEntity
  8
1
  6
Continuous
 62
     7
370
     9
100
AcDbCircle
 10
905.5458710656056
 20
155.1679636286354
 30
0.0
 40
2.0
100
AcDbArc
 50
89.99998201391097
 51
180.0000186693349
  0
ARC
  5
281
330
1F
100
AcDbEntity
  8
1
  6
Continuous
 62
     7
370
     9
100
AcDbCircle
 10
943.5458710656056
 20
83.16796362863545
 30
0.0
 40
2.0
100
AcDbArc
 50
270.0000179860887
 51
0.0
  0
ARC
  5
282
330
1F
100
AcDbEntity
  8
1
  6
Continuous
 62
     7
370
     9
100
AcDbCircle
 10
905.5458710656056
 20
83.16796362863545
 30
0.0
 40
2.0
100
AcDbArc
 50
179.9999813306647
 51
270.0000179860887
  0
CIRCLE
  5
283
330
1F
100
AcDbEntity
  8
1
  6
Continuous
 62
     7
370
     9
100
AcDbCircle
 10
924.5458710656056
 20
119.1679645823098
 30
0.0
 40
14.30000019073486
  0
CIRCLE
  5
284
330
1F
100
AcDbEntity
  8
1
  6
Continuous
 62
     7
370
     9
100
AcDbCircle
 10
924.5458710656056
 20
119.1679636286354
 30
0.0
 40
15.1455
  0
LINE
  5
285
330
1F
100
AcDbEntity
  8
1
  6
Continuous
 62
     7
370
     9
100
AcDbLine
 10
1090.545871065606
 20
152.6679626749611
 30
0.0
 11
1095.545871065606
 21
152.6679626749611
 31
0.0
  0
LINE
  5
286
330
1F
100
AcDbEntity
  8
1
  6
Continuous
 62
     7
370
     9
100
AcDbLine
 10
1090.545871065606
 20
101.6679626749611
 30
0.0
 11
1095.545871065606
 21
101.6679626749611
 31
0.0
  0
LINE
  5
287
330
1F
100
AcDbEntity
  8
1
  6
Continuous
 62
     7
370
     9
100
AcDbLine
 10
1097.545871065606
 20
103.6679626749611
 30
0.0
 11
1097.545871065606
 21
150.6679626749611
 31
0.0
  0
LINE
  5
288
330
1F
100
AcDbEntity
  8
1
  6
Continuous
 62
     7
370
     9
100
AcDbLine
 10
1089.545871065606
 20
151.6679626749611
 30
0.0
 11
1090.545871065606
 21
152.6679626749611
 31
0.0
  0
LINE
  5
289
330
1F
100
AcDbEntity
  8
1
  6
Continuous
 62
     7
370
     9
100
AcDbLine
 10
1082.045871065606
 20
102.6679626749611
 30
0.0
 11
1089.545871065606
 21
102.6679626749611
 31
0.0
  0
LINE
  5
28A
330
1F
100
AcDbEntity
  8
1
  6
Continuous
 62
     7
370
     9
100
AcDbLine
 10
1090.545871065606
 20
101.6679626749611
 30
0.0
 11
1089.545871065606
 21
102.6679626749611
 31
0.0
  0
LINE
  5
28B
330
1F
100
AcDbEntity
  8
1
  6
Continuous
 62
     7
370
     9
100
AcDbLine
 10
1076.045871065606
 20
96.66796267496113
 30
0.0
 11
1076.045871065606
 21
89.16796267496113
 31
0.0
  0
LINE
  5
28C
330
1F
100
AcDbEntity
  8
1
  6
Continuous
 62
     7
370
     9
100
AcDbLine
 10
1013.545871065606
 20
151.6679626749611
 30
0.0
 11
1021.045871478559
 21
151.6679626749611
 31
0.0
  0
LINE
  5
28D
330
1F
100
AcDbEntity
  8
1
  6
Continuous
 62
     7
370
     9
100
AcDbLine
 10
1026.045871065606
 20
88.16796267496113
 30
0.0
 11
1027.045871065606
 21
89.16796267496113
 31
0.0
  0
LINE
  5
28E
330
1F
100
AcDbEntity
  8
1
  6
Continuous
 62
     7
370
     9
100
AcDbLine
 10
1027.045871065606
 20
96.66796267496113
 30
0.0
 11
1027.045871065606
 21
89.16796267496113
 31
0.0
  0
LINE
  5
28F
330
1F
100
AcDbEntity
  8
1
  6
Continuous
 62
     7
370
     9
100
AcDbLine
 10
1076.045871065606
 20
89.16796267496113
 30
0.0
 11
1077.045871065606
 21
88.16796267496113
 31
0.0
  0
LINE
  5
290
330
1F
100
AcDbEntity
  8
1
  6
Continuous
 62
     7
370
     9
100
AcDbLine
 10
1077.045871065606
 20
88.16796267496113
 30
0.0
 11
1077.045871065606
 21
83.16796267496113
 31
0.0
  0
LINE
  5
291
330
1F
100
AcDbEntity
  8
1
  6
Continuous
 62
     7
370
     9
100
AcDbLine
 10
1028.045871065606
 20
81.16796267496113
 30
0.0
 11
1075.045871065606
 21
81.16796267496113
 31
0.0
  0
LINE
  5
292
330
1F
100
AcDbEntity
  8
1
  6
Continuous
 62
     7
370
     9
100
AcDbLine
 10
1026.045871065606
 20
88.16796267496113
 30
0.0
 11
1026.045871065606
 21
83.16796267496113
 31
0.0
  0
LINE
  5
293
330
1F
100
AcDbEntity
  8
1
  6
Continuous
 62
     7
370
     9
100
AcDbLine
 10
1026.045871065606
 20
166.1679626749611
 30
0.0
 11
1077.045871065606
 21
166.1679626749611
 31
0.0
  0
LINE
  5
294
330
1F
100
AcDbEntity
  8
1
  6
Continuous
 62
     7
370
     9
100
AcDbLine
 10
1013.545871065606
 20
102.6679626749611
 30
0.0
 11
1013.545871065606
 21
151.6679626749611
 31
0.0
  0
LINE
  5
295
330
1F
100
AcDbEntity
  8
1
  6
Continuous
 62
     7
370
     9
100
AcDbLine
 10
1012.545871065606
 20
152.6679626749611
 30
0.0
 11
1007.545871065606
 21
152.6679626749611
 31
0.0
  0
LINE
  5
296
330
1F
100
AcDbEntity
  8
1
  6
Continuous
 62
     7
370
     9
100
AcDbLine
 10
1021.045871065606
 20
102.6679626749611
 30
0.0
 11
1013.545871065606
 21
102.6679626749611
 31
0.0
  0
LINE
  5
297
330
1F
100
AcDbEntity
  8
1
  6
Continuous
 62
     7
370
     9
100
AcDbLine
 10
1013.545871065606
 20
151.6679626749611
 30
0.0
 11
1012.545871065606
 21
152.6679626749611
 31
0.0
  0
LINE
  5
298
330
1F
100
AcDbEntity
  8
1
  6
Continuous
 62
     7
370
     9
100
AcDbLine
 10
1005.545871065606
 20
103.6679626749611
 30
0.0
 11
1005.545871065606
 21
150.6679626749611
 31
0.0
  0
LINE
  5
299
330
1F
100
AcDbEntity
  8
1
  6
Continuous
 62
     7
370
     9
100
AcDbLine
 10
1012.545871065606
 20
101.6679626749611
 30
0.0
 11
1013.545871065606
 21
102.6679626749611
 31
0.0
  0
LINE
  5
29A
330
1F
100
AcDbEntity
  8
1
  6
Continuous
 62
     7
370
     9
100
AcDbLine
 10
1012.545871065606
 20
101.6679626749611
 30
0.0
 11
1007.545871065606
 21
101.6679626749611
 31
0.0
  0
LINE
  5
29B
330
1F
100
AcDbEntity
  8
1
  6
Continuous
 62
     7
370
     9
100
AcDbLine
 10
1012.545871065606
 20
101.6679626749611
 30
0.0
 11
1012.545871065606
 21
152.6679626749611
 31
0.0
  0
LINE
  5
29C
330
1F
100
AcDbEntity
  8
1
  6
Continuous
 62
     7
370
     9
100
AcDbLine
 10
1026.045871065606
 20
88.16796267496113
 30
0.0
 11
1077.045871065606
 21
88.16796267496113
 31
0.0
  0
LINE
  5
29D
330
1F
100
AcDbEntity
  8
1
  6
Continuous
 62
     7
370
     9
100
AcDbLine
 10
1027.045871065606
 20
165.1679626749611
 30
0.0
 11
1076.045871065606
 21
165.1679626749611
 31
0.0
  0
LINE
  5
29E
330
1F
100
AcDbEntity
  8
1
  6
Continuous
 62
     7
370
     9
100
AcDbLine
 10
1090.545871065606
 20
103.6679626749611
 30
0.0
 11
1090.545871065606
 21
150.6679626749611
 31
0.0
  0
LINE
  5
29F
330
1F
100
AcDbEntity
  8
1
  6
Continuous
 62
     7
370
     9
100
AcDbLine
 10
1090.545871065606
 20
103.6679626749611
 30
0.0
 11
1090.545871065606
 21
150.6679626749611
 31
0.0
  0
LINE
  5
2A0
330
1F
100
AcDbEntity
  8
1
  6
Continuous
 62
     7
370
     9
100
AcDbLine
 10
1076.045871065606
 20
157.6679626749611
 30
0.0
 11
1076.045871065606
 21
165.1679626749611
 31
0.0
  0
LINE
  5
2A1
330
1F
100
AcDbEntity
  8
1
  6
Continuous
 62
     7
370
     9
100
AcDbLine
 10
1082.045870652653
 20
151.6679626749611
 30
0.0
 11
1089.545871065606
 21
151.6679626749611
 31
0.0
  0
LINE
  5
2A2
330
1F
100
AcDbEntity
  8
1
  6
Continuous
 62
     7
370
     9
100
AcDbLine
 10
1026.045871065606
 20
166.1679626749611
 30
0.0
 11
1027.045871065606
 21
165.1679626749612
 31
0.0
  0
LINE
  5
2A3
330
1F
100
AcDbEntity
  8
1
  6
Continuous
 62
     7
370
     9
100
AcDbLine
 10
1027.045871065606
 20
157.6679626749611
 30
0.0
 11
1027.045871065606
 21
165.1679626749611
 31
0.0
  0
LINE
  5
2A4
330
1F
100
AcDbEntity
  8
1
  6
Continuous
 62
     7
370
     9
100
AcDbLine
 10
1076.045871065606
 20
165.1679626749611
 30
0.0
 11
1077.045871065606
 21
166.1679626749611
 31
0.0
  0
LINE
  5
2A5
330
1F
100
AcDbEntity
  8
1
  6
Continuous
 62
     7
370
     9
100
AcDbLine
 10
1077.045871065606
 20
166.1679626749611
 30
0.0
 11
1077.045871065606
 21
171.1679626749611
 31
0.0
  0
LINE
  5
2A6
330
1F
100
AcDbEntity
  8
1
  6
Continuous
 62
     7
370
     9
100
AcDbLine
 10
1028.045871065606
 20
173.1679626749611
 30
0.0
 11
1075.045871065606
 21
173.1679626749611
 31
0.0
  0
LINE
  5
2A7
330
1F
100
AcDbEntity
  8
1
  6
Continuous
 62
     7
370
     9
100
AcDbLine
 10
1026.045871065606
 20
166.1679626749611
 30
0.0
 11
1026.045871065606
 21
171.1679626749611
 31
0.0
  0
LINE
  5
2A8
330
1F
100
AcDbEntity
  8
1
  6
Continuous
 62
     7
370
     9
100
AcDbLine
 10
1090.545871065606
 20
101.6679626749611
 30
0.0
 11
1090.545871065606
 21
152.6679626749611
 31
0.0
  0
LINE
  5
2A9
330
1F
100
AcDbEntity
  8
1
  6
Continuous
 62
     7
370
     9
100
AcDbLine
 10
1027.045871065606
 20
89.16796267496113
 30
0.0
 11
1076.045871065606
 21
89.16796267496113
 31
0.0
  0
LINE
  5
2AA
330
1F
100
AcDbEntity
  8
1
  6
Continuous
 62
     7
370
     9
100
AcDbLine
 10
1076.045871065606
 20
151.6679626749611
 30
0.0
 11
1052.252977846792
 21
127.8750694561477
 31
0.0
  0
LINE
  5
2AB
330
1F
100
AcDbEntity
  8
1
  6
Continuous
 62
     7
370
     9
100
AcDbLine
 10
1089.545871065606
 20
102.6679626749611
 30
0.0
 11
1089.545871065606
 21
151.6679626749611
 31
0.0
  0
LINE
  5
2AC
330
1F
100
AcDbEntity
  8
1
  6
Continuous
 62
     7
370
     9
100
AcDbLine
 10
1027.045871065606
 20
151.6679626749611
 30
0.0
 11
1050.838764284419
 21
127.8750694561477
 31
0.0
  0
LINE
  5
2AD
330
1F
100
AcDbEntity
  8
1
  6
Continuous
 62
     7
370
     9
100
AcDbLine
 10
1076.045871065606
 20
102.6679626749611
 30
0.0
 11
1052.252977846792
 21
126.4608558937746
 31
0.0
  0
LINE
  5
2AE
330
1F
100
AcDbEntity
  8
1
  6
Continuous
 62
     7
370
     9
100
AcDbLine
 10
1027.045871065606
 20
102.6679626749611
 30
0.0
 11
1050.838764284419
 21
126.4608558937746
 31
0.0
  0
ARC
  5
2AF
330
1F
100
AcDbEntity
  8
1
  6
Continuous
 62
     7
370
     9
100
AcDbCircle
 10
1021.045871065606
 20
96.66796267496113
 30
0.0
 40
6.0
100
AcDbArc
 50
0.0
 51
89.99999999999991
  0
ARC
  5
2B0
330
1F
100
AcDbEntity
  8
1
  6
Continuous
 62
     7
370
     9
100
AcDbCircle
 10
1028.045871065606
 20
83.16796267496113
 30
0.0
 40
2.0
100
AcDbArc
 50
179.9999999999998
 51
269.9999999999998
  0
ARC
  5
2B1
330
1F
100
AcDbEntity
  8
1
  6
Continuous
 62
     7
370
     9
100
AcDbCircle
 10
1075.045871065606
 20
83.16796267496113
 30
0.0
 40
2.0
100
AcDbArc
 50
269.9999999999998
 51
0.0
  0
ARC
  5
2B2
330
1F
100
AcDbEntity
  8
1
  6
Continuous
 62
     7
370
     9
100
AcDbCircle
 10
1095.545871065606
 20
103.6679626749611
 30
0.0
 40
2.0
100
AcDbArc
 50
269.9999999999998
 51
0.0
  0
ARC
  5
2B3
330
1F
100
AcDbEntity
  8
1
  6
Continuous
 62
     7
370
     9
100
AcDbCircle
 10
1095.545871065606
 20
150.6679626749611
 30
0.0
 40
2.0
100
AcDbArc
 50
0.0
 51
89.99999999999991
  0
ARC
  5
2B4
330
1F
100
AcDbEntity
  8
1
  6
Continuous
 62
     7
370
     9
100
AcDbCircle
 10
1082.045871065606
 20
96.66796267496113
 30
0.0
 40
6.0
100
AcDbArc
 50
89.99999999999991
 51
179.9999999999998
  0
ARC
  5
2B5
330
1F
100
AcDbEntity
  8
1
  6
Continuous
 62
     7
370
     9
100
AcDbCircle
 10
1007.545871065606
 20
150.6679626749611
 30
0.0
 40
2.0
100
AcDbArc
 50
89.99999999999991
 51
179.9999999999998
  0
ARC
  5
2B6
330
1F
100
AcDbEntity
  8
1
  6
Continuous
 62
     7
370
     9
100
AcDbCircle
 10
1007.545871065606
 20
103.6679626749611
 30
0.0
 40
2.0
100
AcDbArc
 50
179.9999999999998
 51
269.9999999999998
  0
ARC
  5
2B7
330
1F
100
AcDbEntity
  8
1
  6
Continuous
 62
     7
370
     9
100
AcDbCircle
 10
1021.045871065606
 20
157.6679626749611
 30
0.0
 40
6.0
100
AcDbArc
 50
270.0000000000018
 51
0.0
  0
ARC
  5
2B8
330
1F
100
AcDbEntity
  8
1
  6
Continuous
 62
     7
370
     9
100
AcDbCircle
 10
1028.045871065606
 20
171.1679626749611
 30
0.0
 40
2.0
100
AcDbArc
 50
89.99999999999991
 51
179.9999999999998
  0
ARC
  5
2B9
330
1F
100
AcDbEntity
  8
1
  6
Continuous
 62
     7
370
     9
100
AcDbCircle
 10
1075.045871065606
 20
171.1679626749611
 30
0.0
 40
2.0
100
AcDbArc
 50
0.0
 51
89.99999999999991
  0
ARC
  5
2BA
330
1F
100
AcDbEntity
  8
1
  6
Continuous
 62
     7
370
     9
100
AcDbCircle
 10
1082.045871065606
 20
157.6679626749611
 30
0.0
 40
6.0
100
AcDbArc
 50
180.0000000000002
 51
269.9999999999998
  0
LINE
  5
2BB
330
1F
100
AcDbEntity
  8
1
  6
Continuous
 62
     7
370
     9
100
AcDbLine
 10
1117.545871065606
 20
88.16796267496113
 30
0.0
 11
1118.545871065606
 21
89.16796267496113
 31
0.0
  0
LINE
  5
2BC
330
1F
100
AcDbEntity
  8
1
  6
Continuous
 62
     7
370
     9
100
AcDbLine
 10
1167.545871065606
 20
89.16796267496113
 30
0.0
 11
1168.545871065606
 21
88.16796267496113
 31
0.0
  0
LINE
  5
2BD
330
1F
100
AcDbEntity
  8
1
  6
Continuous
 62
     7
370
     9
100
AcDbLine
 10
1168.545871065606
 20
88.16796267496113
 30
0.0
 11
1168.545871065606
 21
83.16796267496113
 31
0.0
  0
LINE
  5
2BE
330
1F
100
AcDbEntity
  8
1
  6
Continuous
 62
     7
370
     9
100
AcDbLine
 10
1119.545871065606
 20
81.16796267496113
 30
0.0
 11
1166.545871065606
 21
81.16796267496113
 31
0.0
  0
LINE
  5
2BF
330
1F
100
AcDbEntity
  8
1
  6
Continuous
 62
     7
370
     9
100
AcDbLine
 10
1117.545871065606
 20
88.16796267496113
 30
0.0
 11
1117.545871065606
 21
83.16796267496113
 31
0.0
  0
LINE
  5
2C0
330
1F
100
AcDbEntity
  8
1
  6
Continuous
 62
     7
370
     9
100
AcDbLine
 10
1118.545871065606
 20
89.16796267496113
 30
0.0
 11
1167.545871065606
 21
89.16796267496113
 31
0.0
  0
LINE
  5
2C1
330
1F
100
AcDbEntity
  8
1
  6
Continuous
 62
     7
370
     9
100
AcDbLine
 10
1117.545871065606
 20
88.16796267496113
 30
0.0
 11
1168.545871065606
 21
88.16796267496113
 31
0.0
  0
LINE
  5
2C2
330
1F
100
AcDbEntity
  8
1
  6
Continuous
 62
     7
370
     9
100
AcDbLine
 10
1118.545871065606
 20
120.0968948630957
 30
0.0
 11
1118.545871065606
 21
89.16796267496113
 31
0.0
  0
LINE
  5
2C3
330
1F
100
AcDbEntity
  8
1
  6
Continuous
 62
     7
370
     9
100
AcDbLine
 10
1167.545871065606
 20
120.0968948630957
 30
0.0
 11
1167.545871065606
 21
89.16796267496113
 31
0.0
  0
LINE
  5
2C4
330
1F
100
AcDbEntity
  8
1
  6
Continuous
 62
     7
370
     9
100
AcDbLine
 10
1117.545871065606
 20
166.1679626749611
 30
0.0
 11
1118.545871065606
 21
165.1679626749611
 31
0.0
  0
LINE
  5
2C5
330
1F
100
AcDbEntity
  8
1
  6
Continuous
 62
     7
370
     9
100
AcDbLine
 10
1167.545871065606
 20
165.1679626749611
 30
0.0
 11
1168.545871065606
 21
166.1679626749611
 31
0.0
  0
LINE
  5
2C6
330
1F
100
AcDbEntity
  8
1
  6
Continuous
 62
     7
370
     9
100
AcDbLine
 10
1168.545871065606
 20
166.1679626749611
 30
0.0
 11
1168.545871065606
 21
171.1679626749611
 31
0.0
  0
LINE
  5
2C7
330
1F
100
AcDbEntity
  8
1
  6
Continuous
 62
     7
370
     9
100
AcDbLine
 10
1119.545871065606
 20
173.1679626749611
 30
0.0
 11
1166.545871065606
 21
173.1679626749611
 31
0.0
  0
LINE
  5
2C8
330
1F
100
AcDbEntity
  8
1
  6
Continuous
 62
     7
370
     9
100
AcDbLine
 10
1117.545871065606
 20
166.1679626749611
 30
0.0
 11
1117.545871065606
 21
171.1679626749611
 31
0.0
  0
LINE
  5
2C9
330
1F
100
AcDbEntity
  8
1
  6
Continuous
 62
     7
370
     9
100
AcDbLine
 10
1118.545871065606
 20
165.1679626749611
 30
0.0
 11
1167.545871065606
 21
165.1679626749611
 31
0.0
  0
LINE
  5
2CA
330
1F
100
AcDbEntity
  8
1
  6
Continuous
 62
     7
370
     9
100
AcDbLine
 10
1117.545871065606
 20
166.1679626749611
 30
0.0
 11
1168.545871065606
 21
166.1679626749611
 31
0.0
  0
LINE
  5
2CB
330
1F
100
AcDbEntity
  8
1
  6
Continuous
 62
     7
370
     9
100
AcDbLine
 10
1118.545871065606
 20
134.2390304868266
 30
0.0
 11
1118.545871065606
 21
165.1679626749611
 31
0.0
  0
LINE
  5
2CC
330
1F
100
AcDbEntity
  8
1
  6
Continuous
 62
     7
370
     9
100
AcDbLine
 10
1167.545871065606
 20
134.2390304868266
 30
0.0
 11
1167.545871065606
 21
165.1679626749611
 31
0.0
  0
CIRCLE
  5
2CD
330
1F
100
AcDbEntity
  8
1
  6
Continuous
 62
     7
370
     9
100
AcDbCircle
 10
1143.045871065606
 20
127.1679626749611
 30
0.0
 40
25.5
  0
ARC
  5
2CE
330
1F
100
AcDbEntity
  8
1
  6
Continuous
 62
     7
370
     9
100
AcDbCircle
 10
1119.545871065606
 20
83.16796267496113
 30
0.0
 40
2.0
100
AcDbArc
 50
179.9999999999998
 51
269.9999999999998
  0
ARC
  5
2CF
330
1F
100
AcDbEntity
  8
1
  6
Continuous
 62
     7
370
     9
100
AcDbCircle
 10
1166.545871065606
 20
83.16796267496113
 30
0.0
 40
2.0
100
AcDbArc
 50
269.9999999999998
 51
0.0
  0
ARC
  5
2D0
330
1F
100
AcDbEntity
  8
1
  6
Continuous
 62
     7
370
     9
100
AcDbCircle
 10
1166.545871065606
 20
171.1679626749611
 30
0.0
 40
2.0
100
AcDbArc
 50
0.0
 51
89.99999999999991
  0
ARC
  5
2D1
330
1F
100
AcDbEntity
  8
1
  6
Continuous
 62
     7
370
     9
100
AcDbCircle
 10
1119.545871065606
 20
171.1679626749611
 30
0.0
 40
2.0
100
AcDbArc
 50
89.99999999999991
 51
179.9999999999998
  0
CIRCLE
  5
2D2
330
1F
100
AcDbEntity
  8
1
  6
Continuous
 62
     7
370
     9
100
AcDbCircle
 10
1143.045871065606
 20
127.1679626749611
 30
0.0
 40
21.40000000000001
  0
CIRCLE
  5
2D3
330
1F
100
AcDbEntity
  8
1
  6
Continuous
 62
     7
370
     9
100
AcDbCircle
 10
1143.045871065606
 20
127.1679626749611
 30
0.0
 40
18.93739072175811
  0
CIRCLE
  5
2D4
330
1F
100
AcDbEntity
  8
1
  6
Continuous
 62
     7
370
     9
100
AcDbCircle
 10
1143.045871065606
 20
127.1679626749611
 30
0.0
 40
20.955
  0
CIRCLE
  5
2D5
330
1F
100
AcDbEntity
  8
1
  6
Continuous
 62
     7
370
     9
100
AcDbCircle
 10
1143.045871065606
 20
127.1679626749611
 30
0.0
 40
19.476
  0
LINE
  5
2D6
330
1F
100
AcDbEntity
  8
1
  6
Continuous
 62
     7
370
     9
100
AcDbLine
 10
103.292768273717
 20
345.5397911089838
 30
0.0
 11
104.792768273717
 21
344.0397911089838
 31
0.0
  0
LINE
  5
2D7
330
1F
100
AcDbEntity
  8
1
  6
Continuous
 62
     7
370
     9
100
AcDbLine
 10
123.542768273717
 20
357.2897911089838
 30
0.0
 11
123.542768273717
 21
411.7897911089838
 31
0.0
  0
LINE
  5
2D8
330
1F
100
AcDbEntity
  8
1
  6
Continuous
 62
     7
370
     9
100
AcDbLine
 10
116.042768273717
 20
413.7897911089838
 30
0.0
 11
121.542768273717
 21
413.7897911089838
 31
0.0
  0
LINE
  5
2D9
330
1F
100
AcDbEntity
  8
1
  6
Continuous
 62
     7
370
     9
100
AcDbLine
 10
48.292768273717
 20
336.5397911089838
 30
0.0
 11
102.792768273717
 21
336.5397911089838
 31
0.0
  0
LINE
  5
2DA
330
1F
100
AcDbEntity
  8
1
  6
Continuous
 62
     7
370
     9
100
AcDbLine
 10
35.042768273717
 20
355.2897911089838
 30
0.0
 11
35.042768273717
 21
413.7897911089838
 31
0.0
  0
LINE
  5
2DB
330
1F
100
AcDbEntity
  8
1
  6
Continuous
 62
     7
370
     9
100
AcDbLine
 10
116.042768273717
 20
355.2897911089838
 30
0.0
 11
121.542768273717
 21
355.2897911089838
 31
0.0
  0
LINE
  5
2DC
330
1F
100
AcDbEntity
  8
1
  6
Continuous
 62
     7
370
     9
100
AcDbLine
 10
46.292768273717
 20
344.0397911089838
 30
0.0
 11
47.792768273717
 21
345.5397911089838
 31
0.0
  0
LINE
  5
2DD
330
1F
100
AcDbEntity
  8
1
  6
Continuous
 62
     7
370
     9
100
AcDbLine
 10
110.292768273717
 20
412.2897911089838
 30
0.0
 11
114.542768273717
 21
412.2897911089838
 31
0.0
  0
LINE
  5
2DE
330
1F
100
AcDbEntity
  8
1
  6
Continuous
 62
     7
370
     9
100
AcDbLine
 10
46.292768273717
 20
344.0397911089838
 30
0.0
 11
46.292768273717
 21
338.5397911089838
 31
0.0
  0
LINE
  5
2DF
330
1F
100
AcDbEntity
  8
1
  6
Continuous
 62
     7
370
     9
100
AcDbLine
 10
47.792768273717
 20
349.7897911089838
 30
0.0
 11
47.792768273717
 21
345.5397911089838
 31
0.0
  0
LINE
  5
2E0
330
1F
100
AcDbEntity
  8
1
  6
Continuous
 62
     7
370
     9
100
AcDbLine
 10
104.792768273717
 20
344.0397911089838
 30
0.0
 11
104.792768273717
 21
338.5397911089838
 31
0.0
  0
LINE
  5
2E1
330
1F
100
AcDbEntity
  8
1
  6
Continuous
 62
     7
370
     9
100
AcDbLine
 10
116.042768273717
 20
355.2897911089838
 30
0.0
 11
114.542768273717
 21
356.7897911089838
 31
0.0
  0
LINE
  5
2E2
330
1F
100
AcDbEntity
  8
1
  6
Continuous
 62
     7
370
     9
100
AcDbLine
 10
103.292768273717
 20
349.7897911089838
 30
0.0
 11
103.292768273717
 21
345.5397911089838
 31
0.0
  0
LINE
  5
2E3
330
1F
100
AcDbEntity
  8
1
  6
Continuous
 62
     7
370
     9
100
AcDbLine
 10
114.542768273717
 20
412.2897911089838
 30
0.0
 11
116.042768273717
 21
413.7897911089838
 31
0.0
  0
LINE
  5
2E4
330
1F
100
AcDbEntity
  8
1
  6
Continuous
 62
     7
370
     9
100
AcDbLine
 10
110.292768273717
 20
356.7897911089838
 30
0.0
 11
114.542768273717
 21
356.7897911089838
 31
0.0
  0
LINE
  5
2E5
330
1F
100
AcDbEntity
  8
1
  6
Continuous
 62
     7
370
     9
100
AcDbLine
 10
36.542768273717
 20
356.7897911089838
 30
0.0
 11
36.542768273717
 21
412.2897911089838
 31
0.0
  0
LINE
  5
2E6
330
1F
100
AcDbEntity
  8
1
  6
Continuous
 62
     7
370
     9
100
AcDbLine
 10
114.542768273717
 20
356.7897911089838
 30
0.0
 11
114.542768273717
 21
412.2897911089838
 31
0.0
  0
LINE
  5
2E7
330
1F
100
AcDbEntity
  8
1
  6
Continuous
 62
     7
370
     9
100
AcDbLine
 10
47.792768273717
 20
423.5397911089838
 30
0.0
 11
103.292768273717
 21
423.5397911089838
 31
0.0
  0
LINE
  5
2E8
330
1F
100
AcDbEntity
  8
1
  6
Continuous
 62
     7
370
     9
100
AcDbLine
 10
35.042768273717
 20
355.2897911089838
 30
0.0
 11
36.542768273717
 21
356.7897911089838
 31
0.0
  0
LINE
  5
2E9
330
1F
100
AcDbEntity
  8
1
  6
Continuous
 62
     7
370
     9
100
AcDbLine
 10
36.542768273717
 20
412.2897911089838
 30
0.0
 11
35.042768273717
 21
413.7897911089838
 31
0.0
  0
LINE
  5
2EA
330
1F
100
AcDbEntity
  8
1
  6
Continuous
 62
     7
370
     9
100
AcDbLine
 10
40.792768273717
 20
356.7897911089838
 30
0.0
 11
36.542768273717
 21
356.7897911089838
 31
0.0
  0
LINE
  5
2EB
330
1F
100
AcDbEntity
  8
1
  6
Continuous
 62
     7
370
     9
100
AcDbLine
 10
35.042768273717
 20
355.2897911089838
 30
0.0
 11
29.542768273717
 21
355.2897911089838
 31
0.0
  0
LINE
  5
2EC
330
1F
100
AcDbEntity
  8
1
  6
Continuous
 62
     7
370
     9
100
AcDbLine
 10
40.792768273717
 20
412.2897911089838
 30
0.0
 11
36.542768273717
 21
412.2897911089838
 31
0.0
  0
LINE
  5
2ED
330
1F
100
AcDbEntity
  8
1
  6
Continuous
 62
     7
370
     9
100
AcDbLine
 10
27.542768273717
 20
357.2897911089838
 30
0.0
 11
27.542768273717
 21
411.7897911089838
 31
0.0
  0
LINE
  5
2EE
330
1F
100
AcDbEntity
  8
1
  6
Continuous
 62
     7
370
     9
100
AcDbLine
 10
35.042768273717
 20
413.7897911089838
 30
0.0
 11
29.542768273717
 21
413.7897911089838
 31
0.0
  0
LINE
  5
2EF
330
1F
100
AcDbEntity
  8
1
  6
Continuous
 62
     7
370
     9
100
AcDbLine
 10
116.042768273717
 20
355.2897911089838
 30
0.0
 11
116.042768273717
 21
413.7897911089838
 31
0.0
  0
LINE
  5
2F0
330
1F
100
AcDbEntity
  8
1
  6
Continuous
 62
     7
370
     9
100
AcDbLine
 10
47.792768273717
 20
345.5397911089838
 30
0.0
 11
103.292768273717
 21
345.5397911089838
 31
0.0
  0
LINE
  5
2F1
330
1F
100
AcDbEntity
  8
1
  6
Continuous
 62
     7
370
     9
100
AcDbLine
 10
46.292768273717
 20
425.0397911089838
 30
0.0
 11
47.792768273717
 21
423.5397911089838
 31
0.0
  0
LINE
  5
2F2
330
1F
100
AcDbEntity
  8
1
  6
Continuous
 62
     7
370
     9
100
AcDbLine
 10
46.292768273717
 20
425.0397911089838
 30
0.0
 11
104.792768273717
 21
425.0397911089838
 31
0.0
  0
LINE
  5
2F3
330
1F
100
AcDbEntity
  8
1
  6
Continuous
 62
     7
370
     9
100
AcDbLine
 10
46.292768273717
 20
344.0397911089838
 30
0.0
 11
104.792768273717
 21
344.0397911089838
 31
0.0
  0
LINE
  5
2F4
330
1F
100
AcDbEntity
  8
1
  6
Continuous
 62
     7
370
     9
100
AcDbLine
 10
103.292768273717
 20
423.5397911089838
 30
0.0
 11
104.792768273717
 21
425.0397911089838
 31
0.0
  0
LINE
  5
2F5
330
1F
100
AcDbEntity
  8
1
  6
Continuous
 62
     7
370
     9
100
AcDbLine
 10
48.292768273717
 20
432.5397911089838
 30
0.0
 11
102.792768273717
 21
432.5397911089838
 31
0.0
  0
LINE
  5
2F6
330
1F
100
AcDbEntity
  8
1
  6
Continuous
 62
     7
370
     9
100
AcDbLine
 10
46.292768273717
 20
425.0397911089838
 30
0.0
 11
46.292768273717
 21
430.5397911089838
 31
0.0
  0
LINE
  5
2F7
330
1F
100
AcDbEntity
  8
1
  6
Continuous
 62
     7
370
     9
100
AcDbLine
 10
47.792768273717
 20
419.2897911089838
 30
0.0
 11
47.792768273717
 21
423.5397911089838
 31
0.0
  0
LINE
  5
2F8
330
1F
100
AcDbEntity
  8
1
  6
Continuous
 62
     7
370
     9
100
AcDbLine
 10
104.792768273717
 20
425.0397911089838
 30
0.0
 11
104.792768273717
 21
430.5397911089838
 31
0.0
  0
LINE
  5
2F9
330
1F
100
AcDbEntity
  8
1
  6
Continuous
 62
     7
370
     9
100
AcDbLine
 10
103.292768273717
 20
419.2897911089838
 30
0.0
 11
103.292768273717
 21
423.5397911089838
 31
0.0
  0
LINE
  5
2FA
330
1F
100
AcDbEntity
  8
1
  6
Continuous
 62
     7
370
     9
100
AcDbLine
 10
103.292768273717
 20
412.2897911089838
 30
0.0
 11
76.95698183609011
 21
385.9540046713569
 31
0.0
  0
LINE
  5
2FB
330
1F
100
AcDbEntity
  8
1
  6
Continuous
 62
     7
370
     9
100
AcDbLine
 10
47.792768273717
 20
412.2897911089838
 30
0.0
 11
74.1285547113439
 21
385.9540046713569
 31
0.0
  0
LINE
  5
2FC
330
1F
100
AcDbEntity
  8
1
  6
Continuous
 62
     7
370
     9
100
AcDbLine
 10
47.792768273717
 20
356.7897911089838
 30
0.0
 11
74.1285547113439
 21
383.1255775466107
 31
0.0
  0
LINE
  5
2FD
330
1F
100
AcDbEntity
  8
1
  6
Continuous
 62
     7
370
     9
100
AcDbLine
 10
103.292768273717
 20
356.7897911089838
 30
0.0
 11
76.95698183609011
 21
383.1255775466107
 31
0.0
  0
ARC
  5
2FE
330
1F
100
AcDbEntity
  8
1
  6
Continuous
 62
     7
370
     9
100
AcDbCircle
 10
121.542768273717
 20
357.2897911089838
 30
0.0
 40
2.0
100
AcDbArc
 50
269.9999999999998
 51
0.0
  0
ARC
  5
2FF
330
1F
100
AcDbEntity
  8
1
  6
Continuous
 62
     7
370
     9
100
AcDbCircle
 10
102.792768273717
 20
338.5397911089838
 30
0.0
 40
2.0
100
AcDbArc
 50
269.9999999999998
 51
0.0
  0
ARC
  5
300
330
1F
100
AcDbEntity
  8
1
  6
Continuous
 62
     7
370
     9
100
AcDbCircle
 10
110.292768273717
 20
349.7897911089838
 30
0.0
 40
7.0
100
AcDbArc
 50
89.99999999999991
 51
179.9999999999998
  0
ARC
  5
301
330
1F
100
AcDbEntity
  8
1
  6
Continuous
 62
     7
370
     9
100
AcDbCircle
 10
121.542768273717
 20
411.7897911089838
 30
0.0
 40
2.0
100
AcDbArc
 50
0.0
 51
89.99999999999991
  0
ARC
  5
302
330
1F
100
AcDbEntity
  8
1
  6
Continuous
 62
     7
370
     9
100
AcDbCircle
 10
48.292768273717
 20
338.5397911089838
 30
0.0
 40
2.0
100
AcDbArc
 50
179.9999999999998
 51
269.9999999999998
  0
ARC
  5
303
330
1F
100
AcDbEntity
  8
1
  6
Continuous
 62
     7
370
     9
100
AcDbCircle
 10
29.542768273717
 20
357.2897911089838
 30
0.0
 40
2.0
100
AcDbArc
 50
179.9999999999998
 51
269.9999999999998
  0
ARC
  5
304
330
1F
100
AcDbEntity
  8
1
  6
Continuous
 62
     7
370
     9
100
AcDbCircle
 10
40.792768273717
 20
349.7897911089838
 30
0.0
 40
7.0
100
AcDbArc
 50
0.0
 51
89.99999999999991
  0
ARC
  5
305
330
1F
100
AcDbEntity
  8
1
  6
Continuous
 62
     7
370
     9
100
AcDbCircle
 10
29.542768273717
 20
411.7897911089838
 30
0.0
 40
2.0
100
AcDbArc
 50
89.99999999999991
 51
179.9999999999998
  0
ARC
  5
306
330
1F
100
AcDbEntity
  8
1
  6
Continuous
 62
     7
370
     9
100
AcDbCircle
 10
102.792768273717
 20
430.5397911089838
 30
0.0
 40
2.0
100
AcDbArc
 50
0.0
 51
89.99999999999991
  0
ARC
  5
307
330
1F
100
AcDbEntity
  8
1
  6
Continuous
 62
     7
370
     9
100
AcDbCircle
 10
110.292768273717
 20
419.2897911089838
 30
0.0
 40
7.0
100
AcDbArc
 50
179.9999999999998
 51
270.0000000000006
  0
ARC
  5
308
330
1F
100
AcDbEntity
  8
1
  6
Continuous
 62
     7
370
     9
100
AcDbCircle
 10
48.292768273717
 20
430.5397911089838
 30
0.0
 40
2.0
100
AcDbArc
 50
89.99999999999991
 51
179.9999999999998
  0
ARC
  5
309
330
1F
100
AcDbEntity
  8
1
  6
Continuous
 62
     7
370
     9
100
AcDbCircle
 10
40.792768273717
 20
419.2897911089838
 30
0.0
 40
7.0
100
AcDbArc
 50
269.9999999999998
 51
0.0
  0
LINE
  5
30A
330
1F
100
AcDbEntity
  8
1
  6
Continuous
 62
     7
370
     9
100
AcDbLine
 10
143.542768273717
 20
344.0397911089838
 30
0.0
 11
202.042768273717
 21
344.0397911089838
 31
0.0
  0
LINE
  5
30B
330
1F
100
AcDbEntity
  8
1
  6
Continuous
 62
     7
370
     9
100
AcDbLine
 10
143.542768273717
 20
344.0397911089838
 30
0.0
 11
145.042768273717
 21
345.5397911089838
 31
0.0
  0
LINE
  5
30C
330
1F
100
AcDbEntity
  8
1
  6
Continuous
 62
     7
370
     9
100
AcDbLine
 10
200.542768273717
 20
345.5397911089838
 30
0.0
 11
202.042768273717
 21
344.0397911089838
 31
0.0
  0
LINE
  5
30D
330
1F
100
AcDbEntity
  8
1
  6
Continuous
 62
     7
370
     9
100
AcDbLine
 10
145.542768273717
 20
336.5397911089838
 30
0.0
 11
200.042768273717
 21
336.5397911089838
 31
0.0
  0
LINE
  5
30E
330
1F
100
AcDbEntity
  8
1
  6
Continuous
 62
     7
370
     9
100
AcDbLine
 10
202.042768273717
 20
344.0397911089838
 30
0.0
 11
202.042768273717
 21
338.5397911089838
 31
0.0
  0
LINE
  5
30F
330
1F
100
AcDbEntity
  8
1
  6
Continuous
 62
     7
370
     9
100
AcDbLine
 10
145.042768273717
 20
345.5397911089838
 30
0.0
 11
200.542768273717
 21
345.5397911089838
 31
0.0
  0
LINE
  5
310
330
1F
100
AcDbEntity
  8
1
  6
Continuous
 62
     7
370
     9
100
AcDbLine
 10
143.542768273717
 20
344.0397911089838
 30
0.0
 11
143.542768273717
 21
338.5397911089838
 31
0.0
  0
LINE
  5
311
330
1F
100
AcDbEntity
  8
1
  6
Continuous
 62
     7
370
     9
100
AcDbLine
 10
200.542768273717
 20
375.2931701045303
 30
0.0
 11
200.542768273717
 21
345.5397911089838
 31
0.0
  0
LINE
  5
312
330
1F
100
AcDbEntity
  8
1
  6
Continuous
 62
     7
370
     9
100
AcDbLine
 10
145.042768273717
 20
375.2931701045303
 30
0.0
 11
145.042768273717
 21
345.5397911089838
 31
0.0
  0
LINE
  5
313
330
1F
100
AcDbEntity
  8
1
  6
Continuous
 62
     7
370
     9
100
AcDbLine
 10
143.542768273717
 20
425.0397911089838
 30
0.0
 11
202.042768273717
 21
425.0397911089838
 31
0.0
  0
LINE
  5
314
330
1F
100
AcDbEntity
  8
1
  6
Continuous
 62
     7
370
     9
100
AcDbLine
 10
143.542768273717
 20
425.0397911089838
 30
0.0
 11
145.042768273717
 21
423.5397911089838
 31
0.0
  0
LINE
  5
315
330
1F
100
AcDbEntity
  8
1
  6
Continuous
 62
     7
370
     9
100
AcDbLine
 10
200.542768273717
 20
423.5397911089838
 30
0.0
 11
202.042768273717
 21
425.0397911089838
 31
0.0
  0
LINE
  5
316
330
1F
100
AcDbEntity
  8
1
  6
Continuous
 62
     7
370
     9
100
AcDbLine
 10
145.542768273717
 20
432.5397911089838
 30
0.0
 11
200.042768273717
 21
432.5397911089838
 31
0.0
  0
LINE
  5
317
330
1F
100
AcDbEntity
  8
1
  6
Continuous
 62
     7
370
     9
100
AcDbLine
 10
202.042768273717
 20
425.0397911089838
 30
0.0
 11
202.042768273717
 21
430.5397911089838
 31
0.0
  0
LINE
  5
318
330
1F
100
AcDbEntity
  8
1
  6
Continuous
 62
     7
370
     9
100
AcDbLine
 10
145.042768273717
 20
423.5397911089838
 30
0.0
 11
200.542768273717
 21
423.5397911089838
 31
0.0
  0
LINE
  5
319
330
1F
100
AcDbEntity
  8
1
  6
Continuous
 62
     7
370
     9
100
AcDbLine
 10
143.542768273717
 20
425.0397911089838
 30
0.0
 11
143.542768273717
 21
430.5397911089838
 31
0.0
  0
LINE
  5
31A
330
1F
100
AcDbEntity
  8
1
  6
Continuous
 62
     7
370
     9
100
AcDbLine
 10
200.542768273717
 20
393.7864121134372
 30
0.0
 11
200.542768273717
 21
423.5397911089838
 31
0.0
  0
LINE
  5
31B
330
1F
100
AcDbEntity
  8
1
  6
Continuous
 62
     7
370
     9
100
AcDbLine
 10
145.042768273717
 20
393.7864121134372
 30
0.0
 11
145.042768273717
 21
423.5397911089838
 31
0.0
  0
CIRCLE
  5
31C
330
1F
100
AcDbEntity
  8
1
  6
Continuous
 62
     7
370
     9
100
AcDbCircle
 10
172.792768273717
 20
384.5397911089838
 30
0.0
 40
24.34999999999999
  0
CIRCLE
  5
31D
330
1F
100
AcDbEntity
  8
1
  6
Continuous
 62
     7
370
     9
100
AcDbCircle
 10
172.792768273717
 20
384.5397911089838
 30
0.0
 40
29.25
  0
CIRCLE
  5
31E
330
1F
100
AcDbEntity
  8
1
  6
Continuous
 62
     7
370
     9
100
AcDbCircle
 10
172.792768273717
 20
384.5397911089838
 30
0.0
 40
21.85442364462136
  0
ARC
  5
31F
330
1F
100
AcDbEntity
  8
1
  6
Continuous
 62
     7
370
     9
100
AcDbCircle
 10
200.042768273717
 20
338.5397911089838
 30
0.0
 40
2.0
100
AcDbArc
 50
269.9999999999998
 51
0.0
  0
ARC
  5
320
330
1F
100
AcDbEntity
  8
1
  6
Continuous
 62
     7
370
     9
100
AcDbCircle
 10
145.542768273717
 20
338.5397911089838
 30
0.0
 40
2.0
100
AcDbArc
 50
179.9999999999998
 51
269.9999999999998
  0
ARC
  5
321
330
1F
100
AcDbEntity
  8
1
  6
Continuous
 62
     7
370
     9
100
AcDbCircle
 10
200.042768273717
 20
430.5397911089838
 30
0.0
 40
2.0
100
AcDbArc
 50
0.0
 51
89.99999999999991
  0
ARC
  5
322
330
1F
100
AcDbEntity
  8
1
  6
Continuous
 62
     7
370
     9
100
AcDbCircle
 10
145.542768273717
 20
430.5397911089838
 30
0.0
 40
2.0
100
AcDbArc
 50
89.99999999999991
 51
179.9999999999998
  0
CIRCLE
  5
323
330
1F
100
AcDbEntity
  8
1
  6
Continuous
 62
     7
370
     9
100
AcDbCircle
 10
172.792768273717
 20
384.5397911089838
 30
0.0
 40
23.9015
  0
CIRCLE
  5
324
330
1F
100
AcDbEntity
  8
1
  6
Continuous
 62
     7
370
     9
100
AcDbCircle
 10
172.792768273717
 20
384.5397911089838
 30
0.0
 40
22.4225
  0
LINE
  5
325
330
1F
100
AcDbEntity
  8
1
  6
Continuous
 62
     7
370
     9
100
AcDbLine
 10
315.5427682737168
 20
336.539791108984
 30
0.0
 11
382.5427682737168
 21
336.5397911089838
 31
0.0
  0
LINE
  5
326
330
1F
100
AcDbEntity
  8
1
  6
Continuous
 62
     7
370
     9
100
AcDbLine
 10
406.042768273717
 20
427.0397911089839
 30
0.0
 11
406.042768273717
 21
360.0397911089839
 31
0.0
  0
LINE
  5
327
330
1F
100
AcDbEntity
  8
1
  6
Continuous
 62
     7
370
     9
100
AcDbLine
 10
397.542768273717
 20
358.0397911089839
 30
0.0
 11
404.042768273717
 21
358.0397911089839
 31
0.0
  0
LINE
  5
328
330
1F
100
AcDbEntity
  8
1
  6
Continuous
 62
     7
370
     9
100
AcDbLine
 10
384.5427682737168
 20
345.0397911089838
 30
0.0
 11
384.5427682737168
 21
338.5397911089838
 31
0.0
  0
LINE
  5
329
330
1F
100
AcDbEntity
  8
1
  6
Continuous
 62
     7
370
     9
100
AcDbLine
 10
313.5427682737168
 20
345.039791108984
 30
0.0
 11
313.5427682737168
 21
338.539791108984
 31
0.0
  0
LINE
  5
32A
330
1F
100
AcDbEntity
  8
1
  6
Continuous
 62
     7
370
     9
100
AcDbLine
 10
395.9927682737168
 20
359.5897911089838
 30
0.0
 11
397.5427682737169
 21
358.0397911089838
 31
0.0
  0
LINE
  5
32B
330
1F
100
AcDbEntity
  8
1
  6
Continuous
 62
     7
370
     9
100
AcDbLine
 10
390.9927679365421
 20
359.5897911089839
 30
0.0
 11
395.9927682737168
 21
359.5897911089839
 31
0.0
  0
LINE
  5
32C
330
1F
100
AcDbEntity
  8
1
  6
Continuous
 62
     7
370
     9
100
AcDbLine
 10
397.542768273717
 20
429.0397911089839
 30
0.0
 11
404.042768273717
 21
429.0397911089839
 31
0.0
  0
LINE
  5
32D
330
1F
100
AcDbEntity
  8
1
  6
Continuous
 62
     7
370
     9
100
AcDbLine
 10
395.9927682737174
 20
427.4897911089838
 30
0.0
 11
397.5427682737172
 21
429.0397911089836
 31
0.0
  0
LINE
  5
32E
330
1F
100
AcDbEntity
  8
1
  6
Continuous
 62
     7
370
     9
100
AcDbLine
 10
382.992768273717
 20
346.5897911089836
 30
0.0
 11
384.5427682737168
 21
345.0397911089838
 31
0.0
  0
LINE
  5
32F
330
1F
100
AcDbEntity
  8
1
  6
Continuous
 62
     7
370
     9
100
AcDbLine
 10
315.092768273717
 20
346.5897911089841
 30
0.0
 11
313.5427682737168
 21
345.039791108984
 31
0.0
  0
LINE
  5
330
330
1F
100
AcDbEntity
  8
1
  6
Continuous
 62
     7
370
     9
100
AcDbLine
 10
302.0927682737172
 20
359.5897911089838
 30
0.0
 11
300.5427682737171
 21
358.0397911089837
 31
0.0
  0
LINE
  5
331
330
1F
100
AcDbEntity
  8
1
  6
Continuous
 62
     7
370
     9
100
AcDbLine
 10
302.0927682737167
 20
427.4897911089838
 30
0.0
 11
300.5427682737168
 21
429.0397911089835
 31
0.0
  0
LINE
  5
332
330
1F
100
AcDbEntity
  8
1
  6
Continuous
 62
     7
370
     9
100
AcDbLine
 10
315.092768273717
 20
427.4897911089839
 30
0.0
 11
347.6285547113439
 21
394.954004671357
 31
0.0
  0
LINE
  5
333
330
1F
100
AcDbEntity
  8
1
  6
Continuous
 62
     7
370
     9
100
AcDbLine
 10
313.5427682737168
 20
442.0397911089838
 30
0.0
 11
384.5427682737168
 21
442.039791108984
 31
0.0
  0
LINE
  5
334
330
1F
100
AcDbEntity
  8
1
  6
Continuous
 62
     7
370
     9
100
AcDbLine
 10
395.9927682737167
 20
427.4897911089839
 30
0.0
 11
395.9927682737167
 21
359.5897911089839
 31
0.0
  0
LINE
  5
335
330
1F
100
AcDbEntity
  8
1
  6
Continuous
 62
     7
370
     9
100
AcDbLine
 10
315.092768273717
 20
346.5897911089838
 30
0.0
 11
382.992768273717
 21
346.5897911089836
 31
0.0
  0
LINE
  5
336
330
1F
100
AcDbEntity
  8
1
  6
Continuous
 62
     7
370
     9
100
AcDbLine
 10
315.092768273717
 20
440.4897911089839
 30
0.0
 11
382.992768273717
 21
440.4897911089842
 31
0.0
  0
LINE
  5
337
330
1F
100
AcDbEntity
  8
1
  6
Continuous
 62
     7
370
     9
100
AcDbLine
 10
315.092768273717
 20
351.589792321759
 30
0.0
 11
315.092768273717
 21
346.5897911089841
 31
0.0
  0
LINE
  5
338
330
1F
100
AcDbEntity
  8
1
  6
Continuous
 62
     7
370
     9
100
AcDbLine
 10
382.992768273717
 20
351.5897911089839
 30
0.0
 11
382.992768273717
 21
346.5897911089836
 31
0.0
  0
LINE
  5
339
330
1F
100
AcDbEntity
  8
1
  6
Continuous
 62
     7
370
     9
100
AcDbLine
 10
292.042768273717
 20
427.0397911089839
 30
0.0
 11
292.042768273717
 21
360.0397911089839
 31
0.0
  0
LINE
  5
33A
330
1F
100
AcDbEntity
  8
1
  6
Continuous
 62
     7
370
     9
100
AcDbLine
 10
397.5427682737168
 20
429.0397911089839
 30
0.0
 11
397.5427682737168
 21
358.0397911089839
 31
0.0
  0
LINE
  5
33B
330
1F
100
AcDbEntity
  8
1
  6
Continuous
 62
     7
370
     9
100
AcDbLine
 10
313.5427682737168
 20
345.039791108984
 30
0.0
 11
384.5427682737168
 21
345.0397911089838
 31
0.0
  0
LINE
  5
33C
330
1F
100
AcDbEntity
  8
1
  6
Continuous
 62
     7
370
     9
100
AcDbLine
 10
300.542768273717
 20
429.0397911089839
 30
0.0
 11
294.042768273717
 21
429.0397911089839
 31
0.0
  0
LINE
  5
33D
330
1F
100
AcDbEntity
  8
1
  6
Continuous
 62
     7
370
     9
100
AcDbLine
 10
307.0927692531213
 20
427.4897911089839
 30
0.0
 11
302.0927682737168
 21
427.4897911089839
 31
0.0
  0
LINE
  5
33E
330
1F
100
AcDbEntity
  8
1
  6
Continuous
 62
     7
370
     9
100
AcDbLine
 10
300.542768273717
 20
358.0397911089839
 30
0.0
 11
294.042768273717
 21
358.0397911089839
 31
0.0
  0
LINE
  5
33F
330
1F
100
AcDbEntity
  8
1
  6
Continuous
 62
     7
370
     9
100
AcDbLine
 10
307.0927684285743
 20
359.5897911089839
 30
0.0
 11
302.0927682737172
 21
359.5897911089839
 31
0.0
  0
LINE
  5
340
330
1F
100
AcDbEntity
  8
1
  6
Continuous
 62
     7
370
     9
100
AcDbLine
 10
315.0927682737171
 20
359.5897911089839
 30
0.0
 11
347.6285547113439
 21
392.1255775466108
 31
0.0
  0
LINE
  5
341
330
1F
100
AcDbEntity
  8
1
  6
Continuous
 62
     7
370
     9
100
AcDbLine
 10
300.5427682737171
 20
429.0397911089839
 30
0.0
 11
300.5427682737171
 21
358.0397911089839
 31
0.0
  0
LINE
  5
342
330
1F
100
AcDbEntity
  8
1
  6
Continuous
 62
     7
370
     9
100
AcDbLine
 10
302.0927682737173
 20
427.4897911089839
 30
0.0
 11
302.0927682737173
 21
359.5897911089839
 31
0.0
  0
LINE
  5
343
330
1F
100
AcDbEntity
  8
1
  6
Continuous
 62
     7
370
     9
100
AcDbLine
 10
382.9927682737169
 20
359.5897911089839
 30
0.0
 11
350.4569818360901
 21
392.1255775466108
 31
0.0
  0
LINE
  5
344
330
1F
100
AcDbEntity
  8
1
  6
Continuous
 62
     7
370
     9
100
AcDbLine
 10
390.9927672943127
 20
427.4897911089839
 30
0.0
 11
395.9927682737173
 21
427.4897911089839
 31
0.0
  0
LINE
  5
345
330
1F
100
AcDbEntity
  8
1
  6
Continuous
 62
     7
370
     9
100
AcDbLine
 10
315.5427682737168
 20
450.5397911089836
 30
0.0
 11
382.5427682737168
 21
450.539791108984
 31
0.0
  0
LINE
  5
346
330
1F
100
AcDbEntity
  8
1
  6
Continuous
 62
     7
370
     9
100
AcDbLine
 10
384.5427682737168
 20
442.039791108984
 30
0.0
 11
384.5427682737168
 21
448.539791108984
 31
0.0
  0
LINE
  5
347
330
1F
100
AcDbEntity
  8
1
  6
Continuous
 62
     7
370
     9
100
AcDbLine
 10
313.5427682737168
 20
442.0397911089838
 30
0.0
 11
313.5427682737168
 21
448.5397911089836
 31
0.0
  0
LINE
  5
348
330
1F
100
AcDbEntity
  8
1
  6
Continuous
 62
     7
370
     9
100
AcDbLine
 10
382.9927682737169
 20
440.4897911089842
 30
0.0
 11
384.5427682737168
 21
442.039791108984
 31
0.0
  0
LINE
  5
349
330
1F
100
AcDbEntity
  8
1
  6
Continuous
 62
     7
370
     9
100
AcDbLine
 10
315.092768273717
 20
440.4897911089837
 30
0.0
 11
313.5427682737168
 21
442.0397911089838
 31
0.0
  0
LINE
  5
34A
330
1F
100
AcDbEntity
  8
1
  6
Continuous
 62
     7
370
     9
100
AcDbLine
 10
315.092768273717
 20
435.4897898962087
 30
0.0
 11
315.092768273717
 21
440.4897911089837
 31
0.0
  0
LINE
  5
34B
330
1F
100
AcDbEntity
  8
1
  6
Continuous
 62
     7
370
     9
100
AcDbLine
 10
382.992768273717
 20
435.4897911089838
 30
0.0
 11
382.992768273717
 21
440.4897911089842
 31
0.0
  0
LINE
  5
34C
330
1F
100
AcDbEntity
  8
1
  6
Continuous
 62
     7
370
     9
100
AcDbLine
 10
382.9927682737169
 20
427.4897911089839
 30
0.0
 11
350.4569818360901
 21
394.954004671357
 31
0.0
  0
ARC
  5
34D
330
1F
100
AcDbEntity
  8
1
  6
Continuous
 62
     7
370
     9
100
AcDbCircle
 10
315.5427682737168
 20
338.539791108984
 30
0.0
 40
2.0
100
AcDbArc
 50
179.9999999999998
 51
270.0000000000029
  0
ARC
  5
34E
330
1F
100
AcDbEntity
  8
1
  6
Continuous
 62
     7
370
     9
100
AcDbCircle
 10
404.042768273717
 20
360.0397911089839
 30
0.0
 40
2.0
100
AcDbArc
 50
269.9999999999998
 51
0.0
  0
ARC
  5
34F
330
1F
100
AcDbEntity
  8
1
  6
Continuous
 62
     7
370
     9
100
AcDbCircle
 10
404.042768273717
 20
427.0397911089839
 30
0.0
 40
2.0
100
AcDbArc
 50
0.0
 51
89.99999999999991
  0
ARC
  5
350
330
1F
100
AcDbEntity
  8
1
  6
Continuous
 62
     7
370
     9
100
AcDbCircle
 10
382.5427682737168
 20
338.5397911089838
 30
0.0
 40
2.0
100
AcDbArc
 50
269.9999999999998
 51
0.0
  0
ARC
  5
351
330
1F
100
AcDbEntity
  8
1
  6
Continuous
 62
     7
370
     9
100
AcDbCircle
 10
307.092768273717
 20
351.5897911089839
 30
0.0
 40
8.0
100
AcDbArc
 50
0.0
 51
89.99999999999991
  0
ARC
  5
352
330
1F
100
AcDbEntity
  8
1
  6
Continuous
 62
     7
370
     9
100
AcDbCircle
 10
390.9927682737169
 20
351.5897911089839
 30
0.0
 40
8.0
100
AcDbArc
 50
89.99999999999991
 51
179.9999999999998
  0
ARC
  5
353
330
1F
100
AcDbEntity
  8
1
  6
Continuous
 62
     7
370
     9
100
AcDbCircle
 10
294.0427682737171
 20
360.0397911089839
 30
0.0
 40
2.0
100
AcDbArc
 50
179.9999999999998
 51
269.9999999999998
  0
ARC
  5
354
330
1F
100
AcDbEntity
  8
1
  6
Continuous
 62
     7
370
     9
100
AcDbCircle
 10
294.0427682737171
 20
427.0397911089839
 30
0.0
 40
2.0
100
AcDbArc
 50
89.99999999999991
 51
179.9999999999998
  0
ARC
  5
355
330
1F
100
AcDbEntity
  8
1
  6
Continuous
 62
     7
370
     9
100
AcDbCircle
 10
315.5427682737168
 20
448.5397911089838
 30
0.0
 40
2.0
100
AcDbArc
 50
89.99999999999991
 51
179.9999999999998
  0
ARC
  5
356
330
1F
100
AcDbEntity
  8
1
  6
Continuous
 62
     7
370
     9
100
AcDbCircle
 10
382.5427682737168
 20
448.539791108984
 30
0.0
 40
2.0
100
AcDbArc
 50
0.0
 51
89.99999999999991
  0
ARC
  5
357
330
1F
100
AcDbEntity
  8
1
  6
Continuous
 62
     7
370
     9
100
AcDbCircle
 10
307.092768273717
 20
435.4897911089838
 30
0.0
 40
8.0
100
AcDbArc
 50
270.0000000000005
 51
0.0
  0
ARC
  5
358
330
1F
100
AcDbEntity
  8
1
  6
Continuous
 62
     7
370
     9
100
AcDbCircle
 10
390.9927682737169
 20
435.4897911089838
 30
0.0
 40
8.0
100
AcDbArc
 50
180.0
 51
270.0000000000005
  0
LINE
  5
359
330
1F
100
AcDbEntity
  8
1
  6
Continuous
 62
     7
370
     9
100
AcDbLine
 10
426.042768273717
 20
442.039791108984
 30
0.0
 11
461.542768273717
 21
442.039791108984
 31
0.0
  0
LINE
  5
35A
330
1F
100
AcDbEntity
  8
1
  6
Continuous
 62
     7
370
     9
100
AcDbLine
 10
426.042768273717
 20
345.0397911089838
 30
0.0
 11
461.542768273717
 21
345.0397911089838
 31
0.0
  0
LINE
  5
35B
330
1F
100
AcDbEntity
  8
1
  6
Continuous
 62
     7
370
     9
100
AcDbLine
 10
428.042768273717
 20
336.5397911089838
 30
0.0
 11
495.042768273717
 21
336.5397911089838
 31
0.0
  0
LINE
  5
35C
330
1F
100
AcDbEntity
  8
1
  6
Continuous
 62
     7
370
     9
100
AcDbLine
 10
495.492768273717
 20
346.5897911089837
 30
0.0
 11
497.042768273717
 21
345.0397911089838
 31
0.0
  0
LINE
  5
35D
330
1F
100
AcDbEntity
  8
1
  6
Continuous
 62
     7
370
     9
100
AcDbLine
 10
426.042768273717
 20
345.0397911089838
 30
0.0
 11
427.592768273717
 21
346.5897911089838
 31
0.0
  0
LINE
  5
35E
330
1F
100
AcDbEntity
  8
1
  6
Continuous
 62
     7
370
     9
100
AcDbLine
 10
426.042768273717
 20
345.0397911089838
 30
0.0
 11
426.042768273717
 21
338.5397911089838
 31
0.0
  0
LINE
  5
35F
330
1F
100
AcDbEntity
  8
1
  6
Continuous
 62
     7
370
     9
100
AcDbLine
 10
497.042768273717
 20
345.0397911089838
 30
0.0
 11
497.042768273717
 21
338.5397911089838
 31
0.0
  0
LINE
  5
360
330
1F
100
AcDbEntity
  8
1
  6
Continuous
 62
     7
370
     9
100
AcDbLine
 10
427.592768273717
 20
383.1644597889729
 30
0.0
 11
427.592768273717
 21
346.5897911089838
 31
0.0
  0
LINE
  5
361
330
1F
100
AcDbEntity
  8
1
  6
Continuous
 62
     7
370
     9
100
AcDbLine
 10
495.492768273717
 20
383.1644597889727
 30
0.0
 11
495.492768273717
 21
346.5897911089837
 31
0.0
  0
LINE
  5
362
330
1F
100
AcDbEntity
  8
1
  6
Continuous
 62
     7
370
     9
100
AcDbLine
 10
427.592768273717
 20
346.5897911089838
 30
0.0
 11
461.542768273717
 21
346.5897911089838
 31
0.0
  0
LINE
  5
363
330
1F
100
AcDbEntity
  8
1
  6
Continuous
 62
     7
370
     9
100
AcDbLine
 10
461.542768273717
 20
440.4897911089839
 30
0.0
 11
495.492768273717
 21
440.4897911089839
 31
0.0
  0
LINE
  5
364
330
1F
100
AcDbEntity
  8
1
  6
Continuous
 62
     7
370
     9
100
AcDbLine
 10
461.542768273717
 20
345.0397911089838
 30
0.0
 11
497.042768273717
 21
345.0397911089838
 31
0.0
  0
LINE
  5
365
330
1F
100
AcDbEntity
  8
1
  6
Continuous
 62
     7
370
     9
100
AcDbLine
 10
461.542768273717
 20
346.5897911089838
 30
0.0
 11
495.492768273717
 21
346.5897911089838
 31
0.0
  0
LINE
  5
366
330
1F
100
AcDbEntity
  8
1
  6
Continuous
 62
     7
370
     9
100
AcDbLine
 10
495.492768273717
 20
403.915122428995
 30
0.0
 11
495.492768273717
 21
440.489791108984
 31
0.0
  0
LINE
  5
367
330
1F
100
AcDbEntity
  8
1
  6
Continuous
 62
     7
370
     9
100
AcDbLine
 10
427.592768273717
 20
440.4897911089839
 30
0.0
 11
461.542768273717
 21
440.4897911089839
 31
0.0
  0
LINE
  5
368
330
1F
100
AcDbEntity
  8
1
  6
Continuous
 62
     7
370
     9
100
AcDbLine
 10
497.042768273717
 20
442.039791108984
 30
0.0
 11
497.042768273717
 21
448.539791108984
 31
0.0
  0
LINE
  5
369
330
1F
100
AcDbEntity
  8
1
  6
Continuous
 62
     7
370
     9
100
AcDbLine
 10
427.592768273717
 20
403.9151224289948
 30
0.0
 11
427.592768273717
 21
440.4897911089839
 31
0.0
  0
LINE
  5
36A
330
1F
100
AcDbEntity
  8
1
  6
Continuous
 62
     7
370
     9
100
AcDbLine
 10
428.042768273717
 20
450.539791108984
 30
0.0
 11
495.042768273717
 21
450.539791108984
 31
0.0
  0
LINE
  5
36B
330
1F
100
AcDbEntity
  8
1
  6
Continuous
 62
     7
370
     9
100
AcDbLine
 10
426.042768273717
 20
442.039791108984
 30
0.0
 11
427.592768273717
 21
440.4897911089839
 31
0.0
  0
LINE
  5
36C
330
1F
100
AcDbEntity
  8
1
  6
Continuous
 62
     7
370
     9
100
AcDbLine
 10
495.492768273717
 20
440.489791108984
 30
0.0
 11
497.042768273717
 21
442.039791108984
 31
0.0
  0
LINE
  5
36D
330
1F
100
AcDbEntity
  8
1
  6
Continuous
 62
     7
370
     9
100
AcDbLine
 10
426.042768273717
 20
442.039791108984
 30
0.0
 11
426.042768273717
 21
448.539791108984
 31
0.0
  0
LINE
  5
36E
330
1F
100
AcDbEntity
  8
1
  6
Continuous
 62
     7
370
     9
100
AcDbLine
 10
461.542768273717
 20
442.039791108984
 30
0.0
 11
497.042768273717
 21
442.039791108984
 31
0.0
  0
CIRCLE
  5
36F
330
1F
100
AcDbEntity
  8
1
  6
Continuous
 62
     7
370
     9
100
AcDbCircle
 10
461.542768273717
 20
393.5397911089839
 30
0.0
 40
35.5
  0
ARC
  5
370
330
1F
100
AcDbEntity
  8
1
  6
Continuous
 62
     7
370
     9
100
AcDbCircle
 10
428.042768273717
 20
338.5397911089838
 30
0.0
 40
2.0
100
AcDbArc
 50
179.9999999999998
 51
269.9999999999998
  0
ARC
  5
371
330
1F
100
AcDbEntity
  8
1
  6
Continuous
 62
     7
370
     9
100
AcDbCircle
 10
495.042768273717
 20
338.5397911089838
 30
0.0
 40
2.0
100
AcDbArc
 50
269.9999999999998
 51
0.0
  0
CIRCLE
  5
372
330
1F
100
AcDbEntity
  8
1
  6
Continuous
 62
     7
370
     9
100
AcDbCircle
 10
461.542768273717
 20
393.5397911089839
 30
0.0
 40
28.26599680162482
  0
CIRCLE
  5
373
330
1F
100
AcDbEntity
  8
1
  6
Continuous
 62
     7
370
     9
100
AcDbCircle
 10
461.542768273717
 20
393.5397911089839
 30
0.0
 40
27.68255953747989
  0
CIRCLE
  5
374
330
1F
100
AcDbEntity
  8
1
  6
Continuous
 62
     7
370
     9
100
AcDbCircle
 10
461.542768273717
 20
393.5397911089839
 30
0.0
 40
30.25
  0
ARC
  5
375
330
1F
100
AcDbEntity
  8
1
  6
Continuous
 62
     7
370
     9
100
AcDbCircle
 10
495.042768273717
 20
448.539791108984
 30
0.0
 40
2.0
100
AcDbArc
 50
0.0
 51
89.99999999999991
  0
ARC
  5
376
330
1F
100
AcDbEntity
  8
1
  6
Continuous
 62
     7
370
     9
100
AcDbCircle
 10
428.042768273717
 20
448.539791108984
 30
0.0
 40
2.0
100
AcDbArc
 50
89.99999999999991
 51
180.0000000000029
  0
CIRCLE
  5
377
330
1F
100
AcDbEntity
  8
1
  6
Continuous
 62
     7
370
     9
100
AcDbCircle
 10
461.542768273717
 20
393.5397911089839
 30
0.0
 40
29.807
  0
LINE
  5
378
330
1F
100
AcDbEntity
  8
1
  6
Continuous
 62
     7
370
     9
100
AcDbLine
 10
599.0427682737175
 20
360.0397911089838
 30
0.0
 11
589.0427682737175
 21
360.0397911089838
 31
0.0
  0
LINE
  5
379
330
1F
100
AcDbEntity
  8
1
  6
Continuous
 62
     7
370
     9
100
AcDbLine
 10
603.0427682737172
 20
362.5397911089838
 30
0.0
 11
602.0427682737171
 21
362.5397911089838
 31
0.0
  0
LINE
  5
37A
330
1F
100
AcDbEntity
  8
1
  6
Continuous
 62
     7
370
     9
100
AcDbLine
 10
599.0427682737175
 20
451.0397911089836
 30
0.0
 11
589.0427682737175
 21
451.0397911089836
 31
0.0
  0
LINE
  5
37B
330
1F
100
AcDbEntity
  8
1
  6
Continuous
 62
     7
370
     9
100
AcDbLine
 10
699.0427682737172
 20
352.5397911089838
 30
0.0
 11
699.0427682737172
 21
351.5397911089835
 31
0.0
  0
LINE
  5
37C
330
1F
100
AcDbEntity
  8
1
  6
Continuous
 62
     7
370
     9
100
AcDbLine
 10
709.0427682737173
 20
448.5397911089838
 30
0.0
 11
710.0427682737175
 21
448.5397911089838
 31
0.0
  0
LINE
  5
37D
330
1F
100
AcDbEntity
  8
1
  6
Continuous
 62
     7
370
     9
100
AcDbLine
 10
610.5427682737172
 20
348.539791108984
 30
0.0
 11
610.5427682737172
 21
338.539791108984
 31
0.0
  0
LINE
  5
37E
330
1F
100
AcDbEntity
  8
1
  6
Continuous
 62
     7
370
     9
100
AcDbLine
 10
613.0427682737172
 20
362.5397911089838
 30
0.0
 11
654.6285547113441
 21
404.1255775466107
 31
0.0
  0
LINE
  5
37F
330
1F
100
AcDbEntity
  8
1
  6
Continuous
 62
     7
370
     9
100
AcDbLine
 10
699.0427682737172
 20
448.5397911089838
 30
0.0
 11
657.4569818360903
 21
406.9540046713569
 31
0.0
  0
LINE
  5
380
330
1F
100
AcDbEntity
  8
1
  6
Continuous
 62
     7
370
     9
100
AcDbLine
 10
613.0427682737172
 20
448.5397911089838
 30
0.0
 11
654.6285547113441
 21
406.9540046713569
 31
0.0
  0
LINE
  5
381
330
1F
100
AcDbEntity
  8
1
  6
Continuous
 62
     7
370
     9
100
AcDbLine
 10
599.0847283821677
 20
451.0397911089838
 30
0.0
 11
599.0847283821672
 21
360.0397911089838
 31
0.0
  0
LINE
  5
382
330
1F
100
AcDbEntity
  8
1
  6
Continuous
 62
     7
370
     9
100
AcDbLine
 10
699.0427682737172
 20
362.5397911089838
 30
0.0
 11
657.4569818360903
 21
404.1255775466107
 31
0.0
  0
LINE
  5
383
330
1F
100
AcDbEntity
  8
1
  6
Continuous
 62
     7
370
     9
100
AcDbLine
 10
713.0008081652668
 20
451.0397911089836
 30
0.0
 11
713.0008081652672
 21
360.0397911089838
 31
0.0
  0
LINE
  5
384
330
1F
100
AcDbEntity
  8
1
  6
Continuous
 62
     7
370
     9
100
AcDbLine
 10
610.5427682737173
 20
348.5397911089833
 30
0.0
 11
701.5427682737173
 21
348.539791108983
 31
0.0
  0
LINE
  5
385
330
1F
100
AcDbEntity
  8
1
  6
Continuous
 62
     7
370
     9
100
AcDbLine
 10
603.0427682737173
 20
448.5397911089838
 30
0.0
 11
602.0427682737171
 21
448.5397911089838
 31
0.0
  0
LINE
  5
386
330
1F
100
AcDbEntity
  8
1
  6
Continuous
 62
     7
370
     9
100
AcDbLine
 10
701.5427682737172
 20
348.539791108984
 30
0.0
 11
701.5427682737172
 21
338.539791108984
 31
0.0
  0
LINE
  5
387
330
1F
100
AcDbEntity
  8
1
  6
Continuous
 62
     7
370
     9
100
AcDbLine
 10
709.0427682737172
 20
362.5397911089838
 30
0.0
 11
710.0427682737173
 21
362.5397911089838
 31
0.0
  0
LINE
  5
388
330
1F
100
AcDbEntity
  8
1
  6
Continuous
 62
     7
370
     9
100
AcDbLine
 10
699.0427682737172
 20
458.5397911089838
 30
0.0
 11
699.0427682737172
 21
459.539791108984
 31
0.0
  0
LINE
  5
389
330
1F
100
AcDbEntity
  8
1
  6
Continuous
 62
     7
370
     9
100
AcDbLine
 10
613.0427682737172
 20
352.5397911089838
 30
0.0
 11
613.0427682737172
 21
351.5397911089835
 31
0.0
  0
LINE
  5
38A
330
1F
100
AcDbEntity
  8
1
  6
Continuous
 62
     7
370
     9
100
AcDbLine
 10
613.0427682737172
 20
458.5397911089838
 30
0.0
 11
613.0427682737172
 21
459.5397911089839
 31
0.0
  0
LINE
  5
38B
330
1F
100
AcDbEntity
  8
1
  6
Continuous
 62
     7
370
     9
100
AcDbLine
 10
610.5427682737172
 20
462.5397911089835
 30
0.0
 11
610.5427682737172
 21
472.5397911089835
 31
0.0
  0
LINE
  5
38C
330
1F
100
AcDbEntity
  8
1
  6
Continuous
 62
     7
370
     9
100
AcDbLine
 10
713.042768273717
 20
451.0397911089836
 30
0.0
 11
723.042768273717
 21
451.0397911089836
 31
0.0
  0
LINE
  5
38D
330
1F
100
AcDbEntity
  8
1
  6
Continuous
 62
     7
370
     9
100
AcDbLine
 10
725.0427682737171
 20
449.0397914461586
 30
0.0
 11
725.0427682737173
 21
362.0397911089838
 31
0.0
  0
LINE
  5
38E
330
1F
100
AcDbEntity
  8
1
  6
Continuous
 62
     7
370
     9
100
AcDbLine
 10
701.5427682737172
 20
462.5397911089835
 30
0.0
 11
701.5427682737172
 21
472.5397911089835
 31
0.0
  0
LINE
  5
38F
330
1F
100
AcDbEntity
  8
1
  6
Continuous
 62
     7
370
     9
100
AcDbLine
 10
713.0427682737171
 20
360.0397911089838
 30
0.0
 11
723.0427682737171
 21
360.0397911089838
 31
0.0
  0
LINE
  5
390
330
1F
100
AcDbEntity
  8
1
  6
Continuous
 62
     7
370
     9
100
AcDbLine
 10
612.5427680352986
 20
336.539791108984
 30
0.0
 11
699.5427682737172
 21
336.5397911089836
 31
0.0
  0
LINE
  5
391
330
1F
100
AcDbEntity
  8
1
  6
Continuous
 62
     7
370
     9
100
AcDbLine
 10
587.0427682737175
 20
362.0397911089838
 30
0.0
 11
587.042768273717
 21
449.0397911089838
 31
0.0
  0
LINE
  5
392
330
1F
100
AcDbEntity
  8
1
  6
Continuous
 62
     7
370
     9
100
AcDbLine
 10
612.5427682737172
 20
474.5397911089835
 30
0.0
 11
699.5427682737172
 21
474.5397911089839
 31
0.0
  0
LINE
  5
393
330
1F
100
AcDbEntity
  8
1
  6
Continuous
 62
     7
370
     9
100
AcDbLine
 10
700.9569818360901
 20
473.954004671357
 30
0.0
 11
724.45698183609
 21
450.4540046713566
 31
0.0
  0
LINE
  5
394
330
1F
100
AcDbEntity
  8
1
  6
Continuous
 62
     7
370
     9
100
AcDbLine
 10
611.1285547113442
 20
473.954004671357
 30
0.0
 11
587.6285547113443
 21
450.4540046713568
 31
0.0
  0
LINE
  5
395
330
1F
100
AcDbEntity
  8
1
  6
Continuous
 62
     7
370
     9
100
AcDbLine
 10
611.1285547113442
 20
337.1255775466105
 30
0.0
 11
587.6285547113443
 21
360.6255775466108
 31
0.0
  0
LINE
  5
396
330
1F
100
AcDbEntity
  8
1
  6
Continuous
 62
     7
370
     9
100
AcDbLine
 10
700.9569818360901
 20
337.1255775466107
 30
0.0
 11
724.45698183609
 21
360.6255775466109
 31
0.0
  0
LINE
  5
397
330
1F
100
AcDbEntity
  8
1
  6
Continuous
 62
     7
370
     9
100
AcDbLine
 10
610.5427682737172
 20
462.5397911089835
 30
0.0
 11
701.5427682737172
 21
462.5397911089835
 31
0.0
  0
ARC
  5
398
330
1F
100
AcDbEntity
  8
1
  6
Continuous
 62
     7
370
     9
100
AcDbCircle
 10
610.0427682737172
 20
459.5397911089839
 30
0.0
 40
3.0
100
AcDbArc
 50
0.0
 51
80.40593177313947
  0
ARC
  5
399
330
1F
100
AcDbEntity
  8
1
  6
Continuous
 62
     7
370
     9
100
AcDbCircle
 10
589.0427682737175
 20
449.0397911089838
 30
0.0
 40
2.0
100
AcDbArc
 50
89.99999999999991
 51
179.9999999999998
  0
ARC
  5
39A
330
1F
100
AcDbEntity
  8
1
  6
Continuous
 62
     7
370
     9
100
AcDbCircle
 10
709.0427682737172
 20
352.5397911089838
 30
0.0
 40
10.0
100
AcDbArc
 50
89.99999999999991
 51
179.9999999999998
  0
ARC
  5
39B
330
1F
100
AcDbEntity
  8
1
  6
Continuous
 62
     7
370
     9
100
AcDbCircle
 10
602.0427682737171
 20
451.5397911089838
 30
0.0
 40
3.0
100
AcDbArc
 50
189.5940682268601
 51
269.9999999999998
  0
ARC
  5
39C
330
1F
100
AcDbEntity
  8
1
  6
Continuous
 62
     7
370
     9
100
AcDbCircle
 10
602.0427682737171
 20
359.5397911089838
 30
0.0
 40
3.0
100
AcDbArc
 50
89.99999999999991
 51
170.4059317731395
  0
ARC
  5
39D
330
1F
100
AcDbEntity
  8
1
  6
Continuous
 62
     7
370
     9
100
AcDbCircle
 10
699.5427682737172
 20
472.5397911089835
 30
0.0
 40
2.0
100
AcDbArc
 50
0.0
 51
89.99999999999991
  0
ARC
  5
39E
330
1F
100
AcDbEntity
  8
1
  6
Continuous
 62
     7
370
     9
100
AcDbCircle
 10
610.0427682737172
 20
351.5397911089835
 30
0.0
 40
3.0
100
AcDbArc
 50
279.5940682268602
 51
0.0
  0
ARC
  5
39F
330
1F
100
AcDbEntity
  8
1
  6
Continuous
 62
     7
370
     9
100
AcDbCircle
 10
709.0427682737172
 20
458.5397911089838
 30
0.0
 40
10.0
100
AcDbArc
 50
179.9999999999998
 51
270.0000000000003
  0
ARC
  5
3A0
330
1F
100
AcDbEntity
  8
1
  6
Continuous
 62
     7
370
     9
100
AcDbCircle
 10
723.042768273717
 20
362.0397911089838
 30
0.0
 40
2.0
100
AcDbArc
 50
269.9999999999998
 51
0.0
  0
ARC
  5
3A1
330
1F
100
AcDbEntity
  8
1
  6
Continuous
 62
     7
370
     9
100
AcDbCircle
 10
603.0427682737172
 20
458.5397911089838
 30
0.0
 40
10.0
100
AcDbArc
 50
270.0000000000003
 51
0.0
  0
ARC
  5
3A2
330
1F
100
AcDbEntity
  8
1
  6
Continuous
 62
     7
370
     9
100
AcDbCircle
 10
710.0427682737173
 20
451.5397911089838
 30
0.0
 40
3.0
100
AcDbArc
 50
269.9999999999998
 51
350.4059317731391
  0
ARC
  5
3A3
330
1F
100
AcDbEntity
  8
1
  6
Continuous
 62
     7
370
     9
100
AcDbCircle
 10
699.5427682737172
 20
338.539791108984
 30
0.0
 40
2.0
100
AcDbArc
 50
269.9999999999998
 51
0.0
  0
ARC
  5
3A4
330
1F
100
AcDbEntity
  8
1
  6
Continuous
 62
     7
370
     9
100
AcDbCircle
 10
612.5427682737172
 20
338.539791108984
 30
0.0
 40
2.0
100
AcDbArc
 50
179.9999999999998
 51
269.9999999999998
  0
ARC
  5
3A5
330
1F
100
AcDbEntity
  8
1
  6
Continuous
 62
     7
370
     9
100
AcDbCircle
 10
702.0427682737172
 20
459.539791108984
 30
0.0
 40
3.0
100
AcDbArc
 50
99.59406822686053
 51
179.9999999999998
  0
ARC
  5
3A6
330
1F
100
AcDbEntity
  8
1
  6
Continuous
 62
     7
370
     9
100
AcDbCircle
 10
702.0427682737172
 20
351.5397911089835
 30
0.0
 40
3.0
100
AcDbArc
 50
179.9999999999998
 51
260.4059317731391
  0
ARC
  5
3A7
330
1F
100
AcDbEntity
  8
1
  6
Continuous
 62
     7
370
     9
100
AcDbCircle
 10
710.0427682737173
 20
359.5397911089838
 30
0.0
 40
3.0
100
AcDbArc
 50
9.594068226860525
 51
89.99999999999991
  0
ARC
  5
3A8
330
1F
100
AcDbEntity
  8
1
  6
Continuous
 62
     7
370
     9
100
AcDbCircle
 10
612.5427682737172
 20
472.5397911089835
 30
0.0
 40
2.0
100
AcDbArc
 50
89.99999999999991
 51
179.9999999999998
  0
ARC
  5
3A9
330
1F
100
AcDbEntity
  8
1
  6
Continuous
 62
     7
370
     9
100
AcDbCircle
 10
723.0427682737171
 20
449.0397911089838
 30
0.0
 40
2.0
100
AcDbArc
 50
0.0
 51
89.99999999999991
  0
ARC
  5
3AA
330
1F
100
AcDbEntity
  8
1
  6
Continuous
 62
     7
370
     9
100
AcDbCircle
 10
603.0427682737172
 20
352.5397911089838
 30
0.0
 40
10.0
100
AcDbArc
 50
0.0
 51
89.99999999999991
  0
ARC
  5
3AB
330
1F
100
AcDbEntity
  8
1
  6
Continuous
 62
     7
370
     9
100
AcDbCircle
 10
589.0427682737175
 20
362.0397911089838
 30
0.0
 40
2.0
100
AcDbArc
 50
179.9999999999998
 51
269.9999999999998
  0
LINE
  5
3AC
330
1F
100
AcDbEntity
  8
1
  6
Continuous
 62
     7
370
     9
100
AcDbLine
 10
836.0427682737171
 20
348.539791108984
 30
0.0
 11
836.0427682737171
 21
338.539791108984
 31
0.0
  0
LINE
  5
3AD
330
1F
100
AcDbEntity
  8
1
  6
Continuous
 62
     7
370
     9
100
AcDbLine
 10
745.0427682737171
 20
348.539791108984
 30
0.0
 11
745.0427682737171
 21
338.539791108984
 31
0.0
  0
LINE
  5
3AE
330
1F
100
AcDbEntity
  8
1
  6
Continuous
 62
     7
370
     9
100
AcDbLine
 10
836.042768273717
 20
462.5397911089835
 30
0.0
 11
799.792768273717
 21
462.5397911089838
 31
0.0
  0
LINE
  5
3AF
330
1F
100
AcDbEntity
  8
1
  6
Continuous
 62
     7
370
     9
100
AcDbLine
 10
799.7927682737171
 20
451.6883284639206
 30
0.0
 11
799.7927682737171
 21
472.5397911089836
 31
0.0
  0
LINE
  5
3B0
330
1F
100
AcDbEntity
  8
1
  6
Continuous
 62
     7
370
     9
100
AcDbLine
 10
747.5427682737171
 20
390.6653163283403
 30
0.0
 11
747.5427682737171
 21
351.5397911089835
 31
0.0
  0
LINE
  5
3B1
330
1F
100
AcDbEntity
  8
1
  6
Continuous
 62
     7
370
     9
100
AcDbLine
 10
781.2927682737171
 20
359.3912537540469
 30
0.0
 11
781.2927682737171
 21
338.5397911089838
 31
0.0
  0
LINE
  5
3B2
330
1F
100
AcDbEntity
  8
1
  6
Continuous
 62
     7
370
     9
100
AcDbLine
 10
781.2927682737171
 20
451.6883284639206
 30
0.0
 11
781.2927682737171
 21
472.5397911089836
 31
0.0
  0
LINE
  5
3B3
330
1F
100
AcDbEntity
  8
1
  6
Continuous
 62
     7
370
     9
100
AcDbLine
 10
834.0427683573497
 20
474.5397911089835
 30
0.0
 11
747.0427682737171
 21
474.5397911089839
 31
0.0
  0
LINE
  5
3B4
330
1F
100
AcDbEntity
  8
1
  6
Continuous
 62
     7
370
     9
100
AcDbLine
 10
799.7927682737171
 20
359.3912537540469
 30
0.0
 11
799.7927682737171
 21
338.5397911089838
 31
0.0
  0
LINE
  5
3B5
330
1F
100
AcDbEntity
  8
1
  6
Continuous
 62
     7
370
     9
100
AcDbLine
 10
781.2927682737171
 20
348.5397911089838
 30
0.0
 11
745.042768273717
 21
348.5397911089836
 31
0.0
  0
LINE
  5
3B6
330
1F
100
AcDbEntity
  8
1
  6
Continuous
 62
     7
370
     9
100
AcDbLine
 10
834.0427683573497
 20
336.539791108984
 30
0.0
 11
747.0427682737171
 21
336.5397911089836
 31
0.0
  0
LINE
  5
3B7
330
1F
100
AcDbEntity
  8
1
  6
Continuous
 62
     7
370
     9
100
AcDbLine
 10
747.5427682737171
 20
420.4142658896272
 30
0.0
 11
747.5427682737171
 21
459.539791108984
 31
0.0
  0
LINE
  5
3B8
330
1F
100
AcDbEntity
  8
1
  6
Continuous
 62
     7
370
     9
100
AcDbLine
 10
833.5427682737171
 20
420.4142658896272
 30
0.0
 11
833.5427682737171
 21
459.539791108984
 31
0.0
  0
LINE
  5
3B9
330
1F
100
AcDbEntity
  8
1
  6
Continuous
 62
     7
370
     9
100
AcDbLine
 10
745.0427682737171
 20
462.5397911089835
 30
0.0
 11
745.0427682737171
 21
472.5397911089835
 31
0.0
  0
LINE
  5
3BA
330
1F
100
AcDbEntity
  8
1
  6
Continuous
 62
     7
370
     9
100
AcDbLine
 10
836.0427682737171
 20
462.5397911089835
 30
0.0
 11
836.0427682737171
 21
472.5397911089835
 31
0.0
  0
LINE
  5
3BB
330
1F
100
AcDbEntity
  8
1
  6
Continuous
 62
     7
370
     9
100
AcDbLine
 10
781.292768273717
 20
462.5397911089838
 30
0.0
 11
745.042768273717
 21
462.539791108984
 31
0.0
  0
LINE
  5
3BC
330
1F
100
AcDbEntity
  8
1
  6
Continuous
 62
     7
370
     9
100
AcDbLine
 10
833.5427682737171
 20
390.6653163283403
 30
0.0
 11
833.5427682737171
 21
351.5397911089835
 31
0.0
  0
LINE
  5
3BD
330
1F
100
AcDbEntity
  8
1
  6
Continuous
 62
     7
370
     9
100
AcDbLine
 10
836.042768273717
 20
348.539791108984
 30
0.0
 11
799.7927682737171
 21
348.5397911089838
 31
0.0
  0
ARC
  5
3BE
330
1F
100
AcDbEntity
  8
1
  6
Continuous
 62
     7
370
     9
100
AcDbCircle
 10
834.0427682737171
 20
338.539791108984
 30
0.0
 40
2.0
100
AcDbArc
 50
269.9999999999998
 51
0.0
  0
ARC
  5
3BF
330
1F
100
AcDbEntity
  8
1
  6
Continuous
 62
     7
370
     9
100
AcDbCircle
 10
779.2927682737171
 20
472.5397911089836
 30
0.0
 40
2.0
100
AcDbArc
 50
0.0
 51
90.00000239589708
  0
CIRCLE
  5
3C0
330
1F
100
AcDbEntity
  8
1
  6
Continuous
 62
     7
370
     9
100
AcDbCircle
 10
790.5427682737171
 20
405.5397911089838
 30
0.0
 40
45.5
  0
ARC
  5
3C1
330
1F
100
AcDbEntity
  8
1
  6
Continuous
 62
     7
370
     9
100
AcDbCircle
 10
801.7927682737171
 20
472.5397911089836
 30
0.0
 40
2.0
100
AcDbArc
 50
89.99999760410292
 51
179.9999999999998
  0
ARC
  5
3C2
330
1F
100
AcDbEntity
  8
1
  6
Continuous
 62
     7
370
     9
100
AcDbCircle
 10
779.2927682737171
 20
338.5397911089838
 30
0.0
 40
2.0
100
AcDbArc
 50
269.9999976041025
 51
0.0
  0
ARC
  5
3C3
330
1F
100
AcDbEntity
  8
1
  6
Continuous
 62
     7
370
     9
100
AcDbCircle
 10
801.7927682737171
 20
338.5397911089838
 30
0.0
 40
2.0
100
AcDbArc
 50
179.9999999999998
 51
270.0000023958967
  0
ARC
  5
3C4
330
1F
100
AcDbEntity
  8
1
  6
Continuous
 62
     7
370
     9
100
AcDbCircle
 10
836.5427682737171
 20
351.5397911089835
 30
0.0
 40
3.0
100
AcDbArc
 50
179.9999999999998
 51
260.4059317731391
  0
ARC
  5
3C5
330
1F
100
AcDbEntity
  8
1
  6
Continuous
 62
     7
370
     9
100
AcDbCircle
 10
747.0427682737171
 20
472.5397911089835
 30
0.0
 40
2.0
100
AcDbArc
 50
89.99999999999991
 51
179.9999999999998
  0
ARC
  5
3C6
330
1F
100
AcDbEntity
  8
1
  6
Continuous
 62
     7
370
     9
100
AcDbCircle
 10
836.5427682737171
 20
459.539791108984
 30
0.0
 40
3.0
100
AcDbArc
 50
99.59406822686053
 51
179.9999999999998
  0
ARC
  5
3C7
330
1F
100
AcDbEntity
  8
1
  6
Continuous
 62
     7
370
     9
100
AcDbCircle
 10
834.0427682737171
 20
472.5397911089835
 30
0.0
 40
2.0
100
AcDbArc
 50
0.0
 51
89.99999999999991
  0
CIRCLE
  5
3C8
330
1F
100
AcDbEntity
  8
1
  6
Continuous
 62
     7
370
     9
100
AcDbCircle
 10
790.5427682737171
 20
405.5397911089838
 30
0.0
 40
38.04999999999998
  0
CIRCLE
  5
3C9
330
1F
100
AcDbEntity
  8
1
  6
Continuous
 62
     7
370
     9
100
AcDbCircle
 10
790.5427682737171
 20
405.5397911089838
 30
0.0
 40
37.592
  0
CIRCLE
  5
3CA
330
1F
100
AcDbEntity
  8
1
  6
Continuous
 62
     7
370
     9
100
AcDbCircle
 10
790.5427682737171
 20
405.5397911089838
 30
0.0
 40
35.39741987006551
  0
CIRCLE
  5
3CB
330
1F
100
AcDbEntity
  8
1
  6
Continuous
 62
     7
370
     9
100
AcDbCircle
 10
790.5427682737171
 20
405.5397911089838
 30
0.0
 40
36.113
  0
ARC
  5
3CC
330
1F
100
AcDbEntity
  8
1
  6
Continuous
 62
     7
370
     9
100
AcDbCircle
 10
744.5427682737171
 20
351.5397911089835
 30
0.0
 40
3.0
100
AcDbArc
 50
279.5940682268602
 51
0.0
  0
ARC
  5
3CD
330
1F
100
AcDbEntity
  8
1
  6
Continuous
 62
     7
370
     9
100
AcDbCircle
 10
747.0427682737171
 20
338.539791108984
 30
0.0
 40
2.0
100
AcDbArc
 50
179.9999999999998
 51
269.9999999999998
  0
ARC
  5
3CE
330
1F
100
AcDbEntity
  8
1
  6
Continuous
 62
     7
370
     9
100
AcDbCircle
 10
744.5427682737171
 20
459.539791108984
 30
0.0
 40
3.0
100
AcDbArc
 50
0.0
 51
80.40593177313947
  0
ARC
  5
3CF
330
1F
100
AcDbEntity
  8
1
  6
Continuous
 62
     7
370
     9
100
AcDbCircle
 10
801.7927682737171
 20
359.3912537540469
 30
0.0
 40
2.0
100
AcDbArc
 50
103.7002334883696
 51
179.9999999999998
  0
ARC
  5
3D0
330
1F
100
AcDbEntity
  8
1
  6
Continuous
 62
     7
370
     9
100
AcDbCircle
 10
779.2927682737171
 20
359.3912537540469
 30
0.0
 40
2.0
100
AcDbArc
 50
0.0
 51
76.29976651163042
  0
ARC
  5
3D1
330
1F
100
AcDbEntity
  8
1
  6
Continuous
 62
     7
370
     9
100
AcDbCircle
 10
801.7927682737171
 20
451.6883284639206
 30
0.0
 40
2.0
100
AcDbArc
 50
179.9999999999998
 51
256.2997665116301
  0
ARC
  5
3D2
330
1F
100
AcDbEntity
  8
1
  6
Continuous
 62
     7
370
     9
100
AcDbCircle
 10
779.2927682737171
 20
451.6883284639206
 30
0.0
 40
2.0
100
AcDbArc
 50
283.7002334883724
 51
0.0
  0
LINE
  5
3D3
330
1F
100
AcDbEntity
  8
1
  6
Continuous
 62
     7
370
     9
100
AcDbLine
 10
1080.042768273717
 20
362.0397911089838
 30
0.0
 11
1070.441747759284
 21
362.0397911089838
 31
0.0
  0
LINE
  5
3D4
330
1F
100
AcDbEntity
  8
1
  6
Continuous
 62
     7
370
     9
100
AcDbLine
 10
953.5427682737172
 20
336.5397911089838
 30
0.0
 11
1054.542768273717
 21
336.5397911089838
 31
0.0
  0
LINE
  5
3D5
330
1F
100
AcDbEntity
  8
1
  6
Continuous
 62
     7
370
     9
100
AcDbLine
 10
1053.542768273717
 20
353.0397911089838
 30
0.0
 11
1053.542768273717
 21
354.0397911089838
 31
0.0
  0
LINE
  5
3D6
330
1F
100
AcDbEntity
  8
1
  6
Continuous
 62
     7
370
     9
100
AcDbLine
 10
942.5427682737171
 20
365.0397911089838
 30
0.0
 11
943.5427682737172
 21
365.0397911089838
 31
0.0
  0
LINE
  5
3D7
330
1F
100
AcDbEntity
  8
1
  6
Continuous
 62
     7
370
     9
100
AcDbLine
 10
1055.956981836091
 20
337.1255775466105
 30
0.0
 11
1081.456981836091
 21
362.6255775466107
 31
0.0
  0
LINE
  5
3D8
330
1F
100
AcDbEntity
  8
1
  6
Continuous
 62
     7
370
     9
100
AcDbLine
 10
928.0427682737171
 20
362.0397911089838
 30
0.0
 11
937.6437887881509
 21
362.0397911089838
 31
0.0
  0
LINE
  5
3D9
330
1F
100
AcDbEntity
  8
1
  6
Continuous
 62
     7
370
     9
100
AcDbLine
 10
942.5427682737171
 20
464.0397911089836
 30
0.0
 11
943.5427682737171
 21
464.0397911089836
 31
0.0
  0
LINE
  5
3DA
330
1F
100
AcDbEntity
  8
1
  6
Continuous
 62
     7
370
     9
100
AcDbLine
 10
928.0427682737171
 20
467.0397911089836
 30
0.0
 11
937.6437887881509
 21
467.0397911089836
 31
0.0
  0
LINE
  5
3DB
330
1F
100
AcDbEntity
  8
1
  6
Continuous
 62
     7
370
     9
100
AcDbLine
 10
926.6285547113432
 20
466.4540046713576
 30
0.0
 11
952.1285547113432
 21
491.9540046713577
 31
0.0
  0
LINE
  5
3DC
330
1F
100
AcDbEntity
  8
1
  6
Continuous
 62
     7
370
     9
100
AcDbLine
 10
954.5427682737172
 20
353.0397911089838
 30
0.0
 11
954.5427682737172
 21
354.0397911089838
 31
0.0
  0
LINE
  5
3DD
330
1F
100
AcDbEntity
  8
1
  6
Continuous
 62
     7
370
     9
100
AcDbLine
 10
1055.956981836091
 20
491.9540046713569
 30
0.0
 11
1081.456981836091
 21
466.4540046713568
 31
0.0
  0
LINE
  5
3DE
330
1F
100
AcDbEntity
  8
1
  6
Continuous
 62
     7
370
     9
100
AcDbLine
 10
1082.042768273717
 20
364.0397911089838
 30
0.0
 11
1082.042768273717
 21
465.0397911089838
 31
0.0
  0
LINE
  5
3DF
330
1F
100
AcDbEntity
  8
1
  6
Continuous
 62
     7
370
     9
100
AcDbLine
 10
1080.042768273717
 20
467.0397911089838
 30
0.0
 11
1070.441747759284
 21
467.0397911089838
 31
0.0
  0
LINE
  5
3E0
330
1F
100
AcDbEntity
  8
1
  6
Continuous
 62
     7
370
     9
100
AcDbLine
 10
1065.542768273717
 20
464.0397911089836
 30
0.0
 11
1064.542768273717
 21
464.0397911089836
 31
0.0
  0
LINE
  5
3E1
330
1F
100
AcDbEntity
  8
1
  6
Continuous
 62
     7
370
     9
100
AcDbLine
 10
954.5427682737172
 20
476.0397911089838
 30
0.0
 11
954.5427682737172
 21
475.0397911089836
 31
0.0
  0
LINE
  5
3E2
330
1F
100
AcDbEntity
  8
1
  6
Continuous
 62
     7
370
     9
100
AcDbLine
 10
1053.542768273717
 20
476.0397911089838
 30
0.0
 11
1053.542768273717
 21
475.0397911089836
 31
0.0
  0
LINE
  5
3E3
330
1F
100
AcDbEntity
  8
1
  6
Continuous
 62
     7
370
     9
100
AcDbLine
 10
951.5427682737172
 20
490.5397911089838
 30
0.0
 11
951.5427682737172
 21
480.9387705945502
 31
0.0
  0
LINE
  5
3E4
330
1F
100
AcDbEntity
  8
1
  6
Continuous
 62
     7
370
     9
100
AcDbLine
 10
1056.542768273717
 20
490.5397911089838
 30
0.0
 11
1056.542768273717
 21
480.9387705945502
 31
0.0
  0
LINE
  5
3E5
330
1F
100
AcDbEntity
  8
1
  6
Continuous
 62
     7
370
     9
100
AcDbLine
 10
926.0427682737173
 20
364.0397911089838
 30
0.0
 11
926.0427682737172
 21
465.0397911089838
 31
0.0
  0
LINE
  5
3E6
330
1F
100
AcDbEntity
  8
1
  6
Continuous
 62
     7
370
     9
100
AcDbLine
 10
953.5427682737172
 20
492.5397911089838
 30
0.0
 11
1054.542768273717
 21
492.5397911089838
 31
0.0
  0
LINE
  5
3E7
330
1F
100
AcDbEntity
  8
1
  6
Continuous
 62
     7
370
     9
100
AcDbLine
 10
1056.542768273717
 20
338.5397911089838
 30
0.0
 11
1056.542768273717
 21
348.1408116234174
 31
0.0
  0
LINE
  5
3E8
330
1F
100
AcDbEntity
  8
1
  6
Continuous
 62
     7
370
     9
100
AcDbLine
 10
951.5427682737172
 20
338.5397911089838
 30
0.0
 11
951.5427682737172
 21
348.1408116234174
 31
0.0
  0
LINE
  5
3E9
330
1F
100
AcDbEntity
  8
1
  6
Continuous
 62
     7
370
     9
100
AcDbLine
 10
1065.542768273717
 20
365.0397911089839
 30
0.0
 11
1064.542768273717
 21
365.0397911089839
 31
0.0
  0
LINE
  5
3EA
330
1F
100
AcDbEntity
  8
1
  6
Continuous
 62
     7
370
     9
100
AcDbLine
 10
926.6285547113434
 20
362.6255775466103
 30
0.0
 11
952.1285547113436
 21
337.1255775466102
 31
0.0
  0
LINE
  5
3EB
330
1F
100
AcDbEntity
  8
1
  6
Continuous
 62
     7
370
     9
100
AcDbLine
 10
1053.542768273717
 20
365.0397911089839
 30
0.0
 11
1006.164088617277
 21
412.4184707654241
 31
0.0
  0
LINE
  5
3EC
330
1F
100
AcDbEntity
  8
1
  6
Continuous
 62
     7
370
     9
100
AcDbLine
 10
954.5427682737172
 20
365.0397911089838
 30
0.0
 11
1001.921447930158
 21
412.4184707654241
 31
0.0
  0
LINE
  5
3ED
330
1F
100
AcDbEntity
  8
1
  6
Continuous
 62
     7
370
     9
100
AcDbLine
 10
954.5427682737172
 20
464.0397911089836
 30
0.0
 11
1001.921447930158
 21
416.6611114525434
 31
0.0
  0
LINE
  5
3EE
330
1F
100
AcDbEntity
  8
1
  6
Continuous
 62
     7
370
     9
100
AcDbLine
 10
1053.542768273717
 20
464.0397911089836
 30
0.0
 11
1006.164088617277
 21
416.6611114525434
 31
0.0
  0
LINE
  5
3EF
330
1F
100
AcDbEntity
  8
1
  6
Continuous
 62
     7
370
     9
100
AcDbLine
 10
952.1134829981461
 20
349.5397911089838
 30
0.0
 11
1055.972053549288
 21
349.5397911089838
 31
0.0
  0
LINE
  5
3F0
330
1F
100
AcDbEntity
  8
1
  6
Continuous
 62
     7
370
     9
100
AcDbLine
 10
1069.042768273717
 20
362.6105058334126
 30
0.0
 11
1069.042768273717
 21
466.4690763845549
 31
0.0
  0
LINE
  5
3F1
330
1F
100
AcDbEntity
  8
1
  6
Continuous
 62
     7
370
     9
100
AcDbLine
 10
939.0427682737172
 20
362.6105058334127
 30
0.0
 11
939.0427682737171
 21
466.4690763845549
 31
0.0
  0
LINE
  5
3F2
330
1F
100
AcDbEntity
  8
1
  6
Continuous
 62
     7
370
     9
100
AcDbLine
 10
952.1134829981461
 20
479.5397911089838
 30
0.0
 11
1055.972053549288
 21
479.5397911089838
 31
0.0
  0
ARC
  5
3F3
330
1F
100
AcDbEntity
  8
1
  6
Continuous
 62
     7
370
     9
100
AcDbCircle
 10
1080.042768273717
 20
364.0397911089838
 30
0.0
 40
2.0
100
AcDbArc
 50
269.9999999999998
 51
0.0
  0
ARC
  5
3F4
330
1F
100
AcDbEntity
  8
1
  6
Continuous
 62
     7
370
     9
100
AcDbCircle
 10
1065.542768273717
 20
361.5397911089838
 30
0.0
 40
3.5
100
AcDbArc
 50
27.03569178941217
 51
89.99999999999991
  0
ARC
  5
3F5
330
1F
100
AcDbEntity
  8
1
  6
Continuous
 62
     7
370
     9
100
AcDbCircle
 10
1054.542768273717
 20
348.1408116234174
 30
0.0
 40
2.0
100
AcDbArc
 50
0.0
 51
62.96430821058406
  0
ARC
  5
3F6
330
1F
100
AcDbEntity
  8
1
  6
Continuous
 62
     7
370
     9
100
AcDbCircle
 10
953.5427682737172
 20
348.1408116234174
 30
0.0
 40
2.0
100
AcDbArc
 50
117.0356917894131
 51
179.9999999999998
  0
ARC
  5
3F7
330
1F
100
AcDbEntity
  8
1
  6
Continuous
 62
     7
370
     9
100
AcDbCircle
 10
928.0427682737171
 20
465.0397911089836
 30
0.0
 40
2.0
100
AcDbArc
 50
89.99999999999991
 51
179.9999999999998
  0
ARC
  5
3F8
330
1F
100
AcDbEntity
  8
1
  6
Continuous
 62
     7
370
     9
100
AcDbCircle
 10
942.5427682737171
 20
467.5397911089838
 30
0.0
 40
3.5
100
AcDbArc
 50
207.0356917894127
 51
270.0000000000015
  0
ARC
  5
3F9
330
1F
100
AcDbEntity
  8
1
  6
Continuous
 62
     7
370
     9
100
AcDbCircle
 10
937.6437887881509
 20
465.0397911089836
 30
0.0
 40
2.0
100
AcDbArc
 50
27.03569178941304
 51
89.99999999999991
  0
ARC
  5
3FA
330
1F
100
AcDbEntity
  8
1
  6
Continuous
 62
     7
370
     9
100
AcDbCircle
 10
942.5427682737171
 20
361.5397911089838
 30
0.0
 40
3.5
100
AcDbArc
 50
89.99999999999991
 51
152.964308210587
  0
ARC
  5
3FB
330
1F
100
AcDbEntity
  8
1
  6
Continuous
 62
     7
370
     9
100
AcDbCircle
 10
1064.542768273717
 20
475.0397911089836
 30
0.0
 40
11.0
100
AcDbArc
 50
180.0000000000002
 51
269.9999999999998
  0
ARC
  5
3FC
330
1F
100
AcDbEntity
  8
1
  6
Continuous
 62
     7
370
     9
100
AcDbCircle
 10
1080.042768273717
 20
465.0397911089836
 30
0.0
 40
2.0
100
AcDbArc
 50
0.0
 51
89.99999999999991
  0
ARC
  5
3FD
330
1F
100
AcDbEntity
  8
1
  6
Continuous
 62
     7
370
     9
100
AcDbCircle
 10
1065.542768273717
 20
467.5397911089838
 30
0.0
 40
3.5
100
AcDbArc
 50
269.9999999999998
 51
332.9643082105891
  0
ARC
  5
3FE
330
1F
100
AcDbEntity
  8
1
  6
Continuous
 62
     7
370
     9
100
AcDbCircle
 10
1054.542768273717
 20
480.9387705945502
 30
0.0
 40
2.0
100
AcDbArc
 50
297.0356917894141
 51
0.0
  0
ARC
  5
3FF
330
1F
100
AcDbEntity
  8
1
  6
Continuous
 62
     7
370
     9
100
AcDbCircle
 10
1057.042768273717
 20
476.0397911089838
 30
0.0
 40
3.5
100
AcDbArc
 50
117.0356917894114
 51
179.9999999999998
  0
ARC
  5
400
330
1F
100
AcDbEntity
  8
1
  6
Continuous
 62
     7
370
     9
100
AcDbCircle
 10
1070.441747759284
 20
465.0397911089836
 30
0.0
 40
2.0
100
AcDbArc
 50
89.99999999999991
 51
152.9643082105899
  0
ARC
  5
401
330
1F
100
AcDbEntity
  8
1
  6
Continuous
 62
     7
370
     9
100
AcDbCircle
 10
951.0427682737172
 20
476.0397911089838
 30
0.0
 40
3.5
100
AcDbArc
 50
0.0
 51
62.96430821058699
  0
ARC
  5
402
330
1F
100
AcDbEntity
  8
1
  6
Continuous
 62
     7
370
     9
100
AcDbCircle
 10
953.5427682737172
 20
490.5397911089838
 30
0.0
 40
2.0
100
AcDbArc
 50
89.99999999999991
 51
179.9999999999998
  0
ARC
  5
403
330
1F
100
AcDbEntity
  8
1
  6
Continuous
 62
     7
370
     9
100
AcDbCircle
 10
1054.542768273717
 20
490.5397911089838
 30
0.0
 40
2.0
100
AcDbArc
 50
0.0
 51
89.99999999999991
  0
ARC
  5
404
330
1F
100
AcDbEntity
  8
1
  6
Continuous
 62
     7
370
     9
100
AcDbCircle
 10
953.5427682737172
 20
480.9387705945502
 30
0.0
 40
2.0
100
AcDbArc
 50
179.9999999999998
 51
242.9643082105881
  0
ARC
  5
405
330
1F
100
AcDbEntity
  8
1
  6
Continuous
 62
     7
370
     9
100
AcDbCircle
 10
928.0427682737171
 20
364.0397911089838
 30
0.0
 40
2.0
100
AcDbArc
 50
179.9999999999998
 51
269.9999999999998
  0
ARC
  5
406
330
1F
100
AcDbEntity
  8
1
  6
Continuous
 62
     7
370
     9
100
AcDbCircle
 10
1054.542768273717
 20
338.5397911089838
 30
0.0
 40
2.0
100
AcDbArc
 50
269.9999999999998
 51
0.0
  0
ARC
  5
407
330
1F
100
AcDbEntity
  8
1
  6
Continuous
 62
     7
370
     9
100
AcDbCircle
 10
943.5427682737172
 20
354.0397911089838
 30
0.0
 40
11.0
100
AcDbArc
 50
0.0000000000011843
 51
89.99999999999991
  0
ARC
  5
408
330
1F
100
AcDbEntity
  8
1
  6
Continuous
 62
     7
370
     9
100
AcDbCircle
 10
951.0427682737172
 20
353.0397911089838
 30
0.0
 40
3.5
100
AcDbArc
 50
297.0356917894126
 51
0.0
  0
ARC
  5
409
330
1F
100
AcDbEntity
  8
1
  6
Continuous
 62
     7
370
     9
100
AcDbCircle
 10
1057.042768273717
 20
353.0397911089838
 30
0.0
 40
3.5
100
AcDbArc
 50
179.9999999999998
 51
242.9643082105891
  0
ARC
  5
40A
330
1F
100
AcDbEntity
  8
1
  6
Continuous
 62
     7
370
     9
100
AcDbCircle
 10
1070.441747759284
 20
364.0397911089838
 30
0.0
 40
2.0
100
AcDbArc
 50
207.0356917894097
 51
269.9999999999998
  0
ARC
  5
40B
330
1F
100
AcDbEntity
  8
1
  6
Continuous
 62
     7
370
     9
100
AcDbCircle
 10
953.5427682737172
 20
338.5397911089838
 30
0.0
 40
2.0
100
AcDbArc
 50
179.9999999999998
 51
269.9999999999998
  0
ARC
  5
40C
330
1F
100
AcDbEntity
  8
1
  6
Continuous
 62
     7
370
     9
100
AcDbCircle
 10
943.5427682737172
 20
475.0397911089836
 30
0.0
 40
11.0
100
AcDbArc
 50
270.0000000000002
 51
0.0
  0
ARC
  5
40D
330
1F
100
AcDbEntity
  8
1
  6
Continuous
 62
     7
370
     9
100
AcDbCircle
 10
1064.542768273717
 20
354.0397911089838
 30
0.0
 40
11.0
100
AcDbArc
 50
89.99999999999991
 51
179.9999999999998
  0
ARC
  5
40E
330
1F
100
AcDbEntity
  8
1
  6
Continuous
 62
     7
370
     9
100
AcDbCircle
 10
937.6437887881509
 20
364.0397911089838
 30
0.0
 40
2.0
100
AcDbArc
 50
269.9999999999998
 51
332.9643082105895
  0
LINE
  5
40F
330
1F
100
AcDbEntity
  8
1
  6
Continuous
 62
     7
370
     9
100
AcDbLine
 10
1164.542768273717
 20
361.3773043349436
 30
0.0
 11
1164.542768273717
 21
338.5397911089838
 31
0.0
  0
LINE
  5
410
330
1F
100
AcDbEntity
  8
1
  6
Continuous
 62
     7
370
     9
100
AcDbLine
 10
1105.042768273717
 20
353.0397911089838
 30
0.0
 11
1105.042768273717
 21
397.0469354244478
 31
0.0
  0
LINE
  5
411
330
1F
100
AcDbEntity
  8
1
  6
Continuous
 62
     7
370
     9
100
AcDbLine
 10
1207.042768273717
 20
338.5397911089838
 30
0.0
 11
1207.042768273717
 21
348.1408116234174
 31
0.0
  0
LINE
  5
412
330
1F
100
AcDbEntity
  8
1
  6
Continuous
 62
     7
370
     9
100
AcDbLine
 10
1144.542768273717
 20
361.3773043349436
 30
0.0
 11
1144.542768273717
 21
338.5397911089838
 31
0.0
  0
LINE
  5
413
330
1F
100
AcDbEntity
  8
1
  6
Continuous
 62
     7
370
     9
100
AcDbLine
 10
1204.042768273717
 20
353.0397911089838
 30
0.0
 11
1204.042768273717
 21
397.0469354244478
 31
0.0
  0
LINE
  5
414
330
1F
100
AcDbEntity
  8
1
  6
Continuous
 62
     7
370
     9
100
AcDbLine
 10
1102.042768273717
 20
338.5397911089838
 30
0.0
 11
1102.042768273717
 21
348.1408116234174
 31
0.0
  0
LINE
  5
415
330
1F
100
AcDbEntity
  8
1
  6
Continuous
 62
     7
370
     9
100
AcDbLine
 10
1102.613482998146
 20
349.5397911089838
 30
0.0
 11
1144.542768273717
 21
349.5397911089838
 31
0.0
  0
LINE
  5
416
330
1F
100
AcDbEntity
  8
1
  6
Continuous
 62
     7
370
     9
100
AcDbLine
 10
1164.542768273717
 20
349.5397911089838
 30
0.0
 11
1206.472053549288
 21
349.5397911089838
 31
0.0
  0
LINE
  5
417
330
1F
100
AcDbEntity
  8
1
  6
Continuous
 62
     7
370
     9
100
AcDbLine
 10
1104.042768273717
 20
336.5397911089838
 30
0.0
 11
1205.042768273717
 21
336.5397911089838
 31
0.0
  0
LINE
  5
418
330
1F
100
AcDbEntity
  8
1
  6
Continuous
 62
     7
370
     9
100
AcDbLine
 10
1105.042768273717
 20
476.0397911089838
 30
0.0
 11
1105.042768273717
 21
432.0326467935197
 31
0.0
  0
LINE
  5
419
330
1F
100
AcDbEntity
  8
1
  6
Continuous
 62
     7
370
     9
100
AcDbLine
 10
1204.042768273717
 20
476.0397911089838
 30
0.0
 11
1204.042768273717
 21
432.0326467935197
 31
0.0
  0
LINE
  5
41A
330
1F
100
AcDbEntity
  8
1
  6
Continuous
 62
     7
370
     9
100
AcDbLine
 10
1102.042768273717
 20
490.5397911089838
 30
0.0
 11
1102.042768273717
 21
480.9387705945502
 31
0.0
  0
LINE
  5
41B
330
1F
100
AcDbEntity
  8
1
  6
Continuous
 62
     7
370
     9
100
AcDbLine
 10
1207.042768273717
 20
490.5397911089838
 30
0.0
 11
1207.042768273717
 21
480.9387705945502
 31
0.0
  0
LINE
  5
41C
330
1F
100
AcDbEntity
  8
1
  6
Continuous
 62
     7
370
     9
100
AcDbLine
 10
1104.042768273717
 20
492.5397911089838
 30
0.0
 11
1205.042768273717
 21
492.5397911089838
 31
0.0
  0
LINE
  5
41D
330
1F
100
AcDbEntity
  8
1
  6
Continuous
 62
     7
370
     9
100
AcDbLine
 10
1164.542768273717
 20
479.5397911089838
 30
0.0
 11
1206.472053549288
 21
479.5397911089838
 31
0.0
  0
LINE
  5
41E
330
1F
100
AcDbEntity
  8
1
  6
Continuous
 62
     7
370
     9
100
AcDbLine
 10
1102.613482998146
 20
479.5397911089838
 30
0.0
 11
1144.542768273717
 21
479.5397911089838
 31
0.0
  0
LINE
  5
41F
330
1F
100
AcDbEntity
  8
1
  6
Continuous
 62
     7
370
     9
100
AcDbLine
 10
1144.542768273717
 20
467.702277883024
 30
0.0
 11
1144.542768273717
 21
490.5397911089838
 31
0.0
  0
LINE
  5
420
330
1F
100
AcDbEntity
  8
1
  6
Continuous
 62
     7
370
     9
100
AcDbLine
 10
1164.542768273717
 20
467.702277883024
 30
0.0
 11
1164.542768273717
 21
490.5397911089838
 31
0.0
  0
CIRCLE
  5
421
330
1F
100
AcDbEntity
  8
1
  6
Continuous
 62
     7
370
     9
100
AcDbCircle
 10
1154.542768273717
 20
414.5397911089838
 30
0.0
 40
43.92722504429979
  0
ARC
  5
422
330
1F
100
AcDbEntity
  8
1
  6
Continuous
 62
     7
370
     9
100
AcDbCircle
 10
1205.042768273717
 20
338.5397911089838
 30
0.0
 40
2.0
100
AcDbArc
 50
269.9999999999998
 51
0.0
  0
CIRCLE
  5
423
330
1F
100
AcDbEntity
  8
1
  6
Continuous
 62
     7
370
     9
100
AcDbCircle
 10
1154.542768273717
 20
414.5397911089838
 30
0.0
 40
44.40000000000001
  0
CIRCLE
  5
424
330
1F
100
AcDbEntity
  8
1
  6
Continuous
 62
     7
370
     9
100
AcDbCircle
 10
1154.542768273717
 20
414.5397911089838
 30
0.0
 40
52.5
  0
ARC
  5
425
330
1F
100
AcDbEntity
  8
1
  6
Continuous
 62
     7
370
     9
100
AcDbCircle
 10
1205.042768273717
 20
348.1408116234174
 30
0.0
 40
2.0
100
AcDbArc
 50
0.0
 51
62.96430821058406
  0
ARC
  5
426
330
1F
100
AcDbEntity
  8
1
  6
Continuous
 62
     7
370
     9
100
AcDbCircle
 10
1207.542768273717
 20
353.0397911089838
 30
0.0
 40
3.5
100
AcDbArc
 50
179.9999999999998
 51
242.9643082105891
  0
ARC
  5
427
330
1F
100
AcDbEntity
  8
1
  6
Continuous
 62
     7
370
     9
100
AcDbCircle
 10
1166.542768273717
 20
338.5397911089838
 30
0.0
 40
2.0
100
AcDbArc
 50
179.9999999999998
 51
269.9999999999998
  0
ARC
  5
428
330
1F
100
AcDbEntity
  8
1
  6
Continuous
 62
     7
370
     9
100
AcDbCircle
 10
1101.542768273717
 20
353.0397911089838
 30
0.0
 40
3.5
100
AcDbArc
 50
297.035691789411
 51
0.0
  0
ARC
  5
429
330
1F
100
AcDbEntity
  8
1
  6
Continuous
 62
     7
370
     9
100
AcDbCircle
 10
1104.042768273717
 20
348.1408116234174
 30
0.0
 40
2.0
100
AcDbArc
 50
117.0356917894159
 51
179.9999999999998
  0
ARC
  5
42A
330
1F
100
AcDbEntity
  8
1
  6
Continuous
 62
     7
370
     9
100
AcDbCircle
 10
1142.542768273717
 20
361.3773043349436
 30
0.0
 40
2.0
100
AcDbArc
 50
0.0
 51
77.2801897513768
  0
CIRCLE
  5
42B
330
1F
100
AcDbEntity
  8
1
  6
Continuous
 62
     7
370
     9
100
AcDbCircle
 10
1154.542768273717
 20
414.5397911089838
 30
0.0
 40
42.40051290569576
  0
ARC
  5
42C
330
1F
100
AcDbEntity
  8
1
  6
Continuous
 62
     7
370
     9
100
AcDbCircle
 10
1104.042768273717
 20
338.5397911089838
 30
0.0
 40
2.0
100
AcDbArc
 50
179.9999999999998
 51
269.9999999999998
  0
CIRCLE
  5
42D
330
1F
100
AcDbEntity
  8
1
  6
Continuous
 62
     7
370
     9
100
AcDbCircle
 10
1154.542768273717
 20
414.5397911089838
 30
0.0
 40
41.65045939569289
  0
ARC
  5
42E
330
1F
100
AcDbEntity
  8
1
  6
Continuous
 62
     7
370
     9
100
AcDbCircle
 10
1142.542768273717
 20
338.5397911089838
 30
0.0
 40
2.0
100
AcDbArc
 50
269.9999999999998
 51
0.0
  0
ARC
  5
42F
330
1F
100
AcDbEntity
  8
1
  6
Continuous
 62
     7
370
     9
100
AcDbCircle
 10
1166.542768273717
 20
361.3773043349436
 30
0.0
 40
2.0
100
AcDbArc
 50
102.7198102486232
 51
179.9999999999998
  0
ARC
  5
430
330
1F
100
AcDbEntity
  8
1
  6
Continuous
 62
     7
370
     9
100
AcDbCircle
 10
1205.042768273717
 20
480.9387705945502
 30
0.0
 40
2.0
100
AcDbArc
 50
297.0356917894141
 51
0.0
  0
ARC
  5
431
330
1F
100
AcDbEntity
  8
1
  6
Continuous
 62
     7
370
     9
100
AcDbCircle
 10
1207.542768273717
 20
476.0397911089838
 30
0.0
 40
3.5
100
AcDbArc
 50
117.0356917894114
 51
179.9999999999998
  0
ARC
  5
432
330
1F
100
AcDbEntity
  8
1
  6
Continuous
 62
     7
370
     9
100
AcDbCircle
 10
1101.542768273717
 20
476.0397911089838
 30
0.0
 40
3.5
100
AcDbArc
 50
0.0
 51
62.96430821058865
  0
ARC
  5
433
330
1F
100
AcDbEntity
  8
1
  6
Continuous
 62
     7
370
     9
100
AcDbCircle
 10
1104.042768273717
 20
490.5397911089838
 30
0.0
 40
2.0
100
AcDbArc
 50
89.99999999999991
 51
179.9999999999998
  0
ARC
  5
434
330
1F
100
AcDbEntity
  8
1
  6
Continuous
 62
     7
370
     9
100
AcDbCircle
 10
1205.042768273717
 20
490.5397911089838
 30
0.0
 40
2.0
100
AcDbArc
 50
0.0
 51
89.99999999999991
  0
ARC
  5
435
330
1F
100
AcDbEntity
  8
1
  6
Continuous
 62
     7
370
     9
100
AcDbCircle
 10
1104.042768273717
 20
480.9387705945502
 30
0.0
 40
2.0
100
AcDbArc
 50
179.9999999999998
 51
242.9643082105852
  0
ARC
  5
436
330
1F
100
AcDbEntity
  8
1
  6
Continuous
 62
     7
370
     9
100
AcDbCircle
 10
1166.542768273717
 20
467.702277883024
 30
0.0
 40
2.0
100
AcDbArc
 50
179.9999999999998
 51
257.2801897513764
  0
ARC
  5
437
330
1F
100
AcDbEntity
  8
1
  6
Continuous
 62
     7
370
     9
100
AcDbCircle
 10
1142.542768273717
 20
490.5397911089838
 30
0.0
 40
2.0
100
AcDbArc
 50
0.0
 51
89.99999999999991
  0
ARC
  5
438
330
1F
100
AcDbEntity
  8
1
  6
Continuous
 62
     7
370
     9
100
AcDbCircle
 10
1142.542768273717
 20
467.702277883024
 30
0.0
 40
2.0
100
AcDbArc
 50
282.7198102486228
 51
0.0
  0
ARC
  5
439
330
1F
100
AcDbEntity
  8
1
  6
Continuous
 62
     7
370
     9
100
AcDbCircle
 10
1166.542768273717
 20
490.5397911089838
 30
0.0
 40
2.0
100
AcDbArc
 50
89.99999999999991
 51
179.9999999999998
  0
LINE
  5
43A
330
1F
100
AcDbEntity
  8
1
  6
Continuous
 62
     7
370
     9
100
AcDbLine
 10
419.1823456707184
 20
624.0769217466193
 30
0.0
 11
419.1823456707184
 21
637.0769217466193
 31
0.0
  0
LINE
  5
43B
330
1F
100
AcDbEntity
  8
1
  6
Continuous
 62
     7
370
     9
100
AcDbLine
 10
552.1823456707182
 20
624.0769217466193
 30
0.0
 11
552.1823456707182
 21
637.0769217466193
 31
0.0
  0
LINE
  5
43C
330
1F
100
AcDbEntity
  8
1
  6
Continuous
 62
     7
370
     9
100
AcDbLine
 10
390.6823456707182
 20
785.5769217466192
 30
0.0
 11
403.6823456707182
 21
785.5769217466192
 31
0.0
  0
LINE
  5
43D
330
1F
100
AcDbEntity
  8
1
  6
Continuous
 62
     7
370
     9
100
AcDbLine
 10
421.1823456707182
 20
622.0769217466193
 30
0.0
 11
550.1823456707182
 21
622.0769217466193
 31
0.0
  0
LINE
  5
43E
330
1F
100
AcDbEntity
  8
1
  6
Continuous
 62
     7
370
     9
100
AcDbLine
 10
389.2681321083453
 20
653.1627081842463
 30
0.0
 11
419.7681321083453
 21
622.6627081842463
 31
0.0
  0
LINE
  5
43F
330
1F
100
AcDbEntity
  8
1
  6
Continuous
 62
     7
370
     9
100
AcDbLine
 10
407.6823456707182
 20
654.5769217466193
 30
0.0
 11
409.1823456707182
 21
654.5769217466193
 31
0.0
  0
LINE
  5
440
330
1F
100
AcDbEntity
  8
1
  6
Continuous
 62
     7
370
     9
100
AcDbLine
 10
566.6823456707182
 20
652.8448709390505
 30
0.0
 11
566.6823456707184
 21
785.3089725541881
 31
0.0
  0
LINE
  5
441
330
1F
100
AcDbEntity
  8
1
  6
Continuous
 62
     7
370
     9
100
AcDbLine
 10
550.1823456707182
 20
641.0769217466193
 30
0.0
 11
550.1823456707182
 21
642.5769217466193
 31
0.0
  0
LINE
  5
442
330
1F
100
AcDbEntity
  8
1
  6
Continuous
 62
     7
370
     9
100
AcDbLine
 10
580.6823456707184
 20
785.5769217466192
 30
0.0
 11
567.6823456707184
 21
785.5769217466192
 31
0.0
  0
LINE
  5
443
330
1F
100
AcDbEntity
  8
1
  6
Continuous
 62
     7
370
     9
100
AcDbLine
 10
407.6823456707182
 20
783.5769217466192
 30
0.0
 11
409.1823456707182
 21
783.5769217466192
 31
0.0
  0
LINE
  5
444
330
1F
100
AcDbEntity
  8
1
  6
Continuous
 62
     7
370
     9
100
AcDbLine
 10
389.2681321083453
 20
784.9911353089924
 30
0.0
 11
419.7681321083453
 21
815.4911353089924
 31
0.0
  0
LINE
  5
445
330
1F
100
AcDbEntity
  8
1
  6
Continuous
 62
     7
370
     9
100
AcDbLine
 10
563.6823456707184
 20
783.5769217466192
 30
0.0
 11
562.1823456707182
 21
783.5769217466192
 31
0.0
  0
LINE
  5
446
330
1F
100
AcDbEntity
  8
1
  6
Continuous
 62
     7
370
     9
100
AcDbLine
 10
582.6823456707182
 20
654.5769217466193
 30
0.0
 11
582.6823456707184
 21
783.5769217466193
 31
0.0
  0
LINE
  5
447
330
1F
100
AcDbEntity
  8
1
  6
Continuous
 62
     7
370
     9
100
AcDbLine
 10
404.6823456707184
 20
652.8448709390505
 30
0.0
 11
404.6823456707182
 21
785.3089725541881
 31
0.0
  0
LINE
  5
448
330
1F
100
AcDbEntity
  8
1
  6
Continuous
 62
     7
370
     9
100
AcDbLine
 10
580.6823456707182
 20
652.5769217466193
 30
0.0
 11
567.6823456707182
 21
652.5769217466193
 31
0.0
  0
LINE
  5
449
330
1F
100
AcDbEntity
  8
1
  6
Continuous
 62
     7
370
     9
100
AcDbLine
 10
390.6823456707182
 20
652.5769217466193
 30
0.0
 11
403.6823456707182
 21
652.5769217466193
 31
0.0
  0
LINE
  5
44A
330
1F
100
AcDbEntity
  8
1
  6
Continuous
 62
     7
370
     9
100
AcDbLine
 10
563.6823456707182
 20
654.5769217466193
 30
0.0
 11
562.1823456707182
 21
654.5769217466193
 31
0.0
  0
LINE
  5
44B
330
1F
100
AcDbEntity
  8
1
  6
Continuous
 62
     7
370
     9
100
AcDbLine
 10
421.1823456707182
 20
641.0769217466193
 30
0.0
 11
421.1823456707182
 21
642.5769217466193
 31
0.0
  0
LINE
  5
44C
330
1F
100
AcDbEntity
  8
1
  6
Continuous
 62
     7
370
     9
100
AcDbLine
 10
551.5965592330913
 20
622.6627081842462
 30
0.0
 11
582.0965592330915
 21
653.1627081842463
 31
0.0
  0
LINE
  5
44D
330
1F
100
AcDbEntity
  8
1
  6
Continuous
 62
     7
370
     9
100
AcDbLine
 10
551.5965592330915
 20
815.4911353089925
 30
0.0
 11
582.0965592330915
 21
784.9911353089924
 31
0.0
  0
LINE
  5
44E
330
1F
100
AcDbEntity
  8
1
  6
Continuous
 62
     7
370
     9
100
AcDbLine
 10
388.6823456707184
 20
654.5769217466193
 30
0.0
 11
388.6823456707184
 21
783.5769217466193
 31
0.0
  0
LINE
  5
44F
330
1F
100
AcDbEntity
  8
1
  6
Continuous
 62
     7
370
     9
100
AcDbLine
 10
419.4502948631493
 20
638.0769217466193
 30
0.0
 11
551.9143964782872
 21
638.0769217466193
 31
0.0
  0
LINE
  5
450
330
1F
100
AcDbEntity
  8
1
  6
Continuous
 62
     7
370
     9
100
AcDbLine
 10
421.1823456707182
 20
816.0769217466193
 30
0.0
 11
550.1823456707182
 21
816.0769217466193
 31
0.0
  0
LINE
  5
451
330
1F
100
AcDbEntity
  8
1
  6
Continuous
 62
     7
370
     9
100
AcDbLine
 10
552.1823456707182
 20
814.0769217466193
 30
0.0
 11
552.1823456707182
 21
801.0769217466193
 31
0.0
  0
LINE
  5
452
330
1F
100
AcDbEntity
  8
1
  6
Continuous
 62
     7
370
     9
100
AcDbLine
 10
419.1823456707184
 20
814.0769217466193
 30
0.0
 11
419.1823456707184
 21
801.0769217466193
 31
0.0
  0
LINE
  5
453
330
1F
100
AcDbEntity
  8
1
  6
Continuous
 62
     7
370
     9
100
AcDbLine
 10
550.1823456707182
 20
797.0769217466193
 30
0.0
 11
550.1823456707182
 21
795.5769217466193
 31
0.0
  0
LINE
  5
454
330
1F
100
AcDbEntity
  8
1
  6
Continuous
 62
     7
370
     9
100
AcDbLine
 10
421.1823456707182
 20
797.0769217466193
 30
0.0
 11
421.1823456707182
 21
795.5769217466193
 31
0.0
  0
LINE
  5
455
330
1F
100
AcDbEntity
  8
1
  6
Continuous
 62
     7
370
     9
100
AcDbLine
 10
550.1823456707182
 20
654.5769217466193
 30
0.0
 11
488.5107727954644
 21
716.2484946218732
 31
0.0
  0
LINE
  5
456
330
1F
100
AcDbEntity
  8
1
  6
Continuous
 62
     7
370
     9
100
AcDbLine
 10
421.1823456707182
 20
783.5769217466193
 30
0.0
 11
482.853918545972
 21
721.9053488713654
 31
0.0
  0
LINE
  5
457
330
1F
100
AcDbEntity
  8
1
  6
Continuous
 62
     7
370
     9
100
AcDbLine
 10
419.4502948631493
 20
800.0769217466193
 30
0.0
 11
551.9143964782872
 21
800.0769217466193
 31
0.0
  0
LINE
  5
458
330
1F
100
AcDbEntity
  8
1
  6
Continuous
 62
     7
370
     9
100
AcDbLine
 10
550.1823456707184
 20
783.5769217466192
 30
0.0
 11
488.5107727954644
 21
721.9053488713654
 31
0.0
  0
LINE
  5
459
330
1F
100
AcDbEntity
  8
1
  6
Continuous
 62
     7
370
     9
100
AcDbLine
 10
421.1823456707184
 20
654.5769217466193
 30
0.0
 11
482.8539185459722
 21
716.2484946218731
 31
0.0
  0
ARC
  5
45A
330
1F
100
AcDbEntity
  8
1
  6
Continuous
 62
     7
370
     9
100
AcDbCircle
 10
403.6823456707182
 20
654.5769217466193
 30
0.0
 40
2.0
100
AcDbArc
 50
269.9999999999998
 51
323.1301023541595
  0
ARC
  5
45B
330
1F
100
AcDbEntity
  8
1
  6
Continuous
 62
     7
370
     9
100
AcDbCircle
 10
418.1823456707182
 20
641.0769217466193
 30
0.0
 40
3.0
100
AcDbArc
 50
306.8698976458467
 51
0.0
  0
ARC
  5
45C
330
1F
100
AcDbEntity
  8
1
  6
Continuous
 62
     7
370
     9
100
AcDbCircle
 10
567.6823456707184
 20
654.5769217466193
 30
0.0
 40
2.0
100
AcDbArc
 50
216.8698976458463
 51
269.9999999999998
  0
ARC
  5
45D
330
1F
100
AcDbEntity
  8
1
  6
Continuous
 62
     7
370
     9
100
AcDbCircle
 10
421.1823456707182
 20
624.0769217466193
 30
0.0
 40
2.0
100
AcDbArc
 50
179.9999999999998
 51
269.9999999999998
  0
ARC
  5
45E
330
1F
100
AcDbEntity
  8
1
  6
Continuous
 62
     7
370
     9
100
AcDbCircle
 10
421.1823456707182
 20
637.0769217466193
 30
0.0
 40
2.0
100
AcDbArc
 50
126.8698976458395
 51
179.9999999999998
  0
ARC
  5
45F
330
1F
100
AcDbEntity
  8
1
  6
Continuous
 62
     7
370
     9
100
AcDbCircle
 10
563.6823456707184
 20
786.5769217466192
 30
0.0
 40
3.0
100
AcDbArc
 50
269.9999999999998
 51
323.1301023541574
  0
ARC
  5
460
330
1F
100
AcDbEntity
  8
1
  6
Continuous
 62
     7
370
     9
100
AcDbCircle
 10
390.6823456707182
 20
654.5769217466193
 30
0.0
 40
2.0
100
AcDbArc
 50
179.9999999999998
 51
269.9999999999998
  0
ARC
  5
461
330
1F
100
AcDbEntity
  8
1
  6
Continuous
 62
     7
370
     9
100
AcDbCircle
 10
563.6823456707184
 20
651.5769217466193
 30
0.0
 40
3.0
100
AcDbArc
 50
36.86989764584402
 51
89.99999999999991
  0
ARC
  5
462
330
1F
100
AcDbEntity
  8
1
  6
Continuous
 62
     7
370
     9
100
AcDbCircle
 10
562.1823456707182
 20
642.5769217466193
 30
0.0
 40
12.0
100
AcDbArc
 50
89.99999999999991
 51
179.9999999999998
  0
ARC
  5
463
330
1F
100
AcDbEntity
  8
1
  6
Continuous
 62
     7
370
     9
100
AcDbCircle
 10
562.1823456707182
 20
795.5769217466192
 30
0.0
 40
12.0
100
AcDbArc
 50
180.0000000000002
 51
270.0000000000007
  0
ARC
  5
464
330
1F
100
AcDbEntity
  8
1
  6
Continuous
 62
     7
370
     9
100
AcDbCircle
 10
567.6823456707184
 20
783.5769217466192
 30
0.0
 40
2.0
100
AcDbArc
 50
89.99999999999991
 51
143.1301023541534
  0
ARC
  5
465
330
1F
100
AcDbEntity
  8
1
  6
Continuous
 62
     7
370
     9
100
AcDbCircle
 10
390.6823456707182
 20
783.5769217466192
 30
0.0
 40
2.0
100
AcDbArc
 50
89.99999999999991
 51
179.9999999999998
  0
ARC
  5
466
330
1F
100
AcDbEntity
  8
1
  6
Continuous
 62
     7
370
     9
100
AcDbCircle
 10
409.1823456707184
 20
642.5769217466193
 30
0.0
 40
12.0
100
AcDbArc
 50
0.0000000000010856
 51
89.99999999999991
  0
ARC
  5
467
330
1F
100
AcDbEntity
  8
1
  6
Continuous
 62
     7
370
     9
100
AcDbCircle
 10
407.6823456707182
 20
651.5769217466193
 30
0.0
 40
3.0
100
AcDbArc
 50
89.99999999999991
 51
143.1301023541534
  0
ARC
  5
468
330
1F
100
AcDbEntity
  8
1
  6
Continuous
 62
     7
370
     9
100
AcDbCircle
 10
580.6823456707184
 20
654.5769217466193
 30
0.0
 40
2.0
100
AcDbArc
 50
269.9999999999998
 51
0.0
  0
ARC
  5
469
330
1F
100
AcDbEntity
  8
1
  6
Continuous
 62
     7
370
     9
100
AcDbCircle
 10
580.6823456707184
 20
783.5769217466192
 30
0.0
 40
2.0
100
AcDbArc
 50
0.0
 51
89.99999999999991
  0
ARC
  5
46A
330
1F
100
AcDbEntity
  8
1
  6
Continuous
 62
     7
370
     9
100
AcDbCircle
 10
403.6823456707182
 20
783.5769217466192
 30
0.0
 40
2.0
100
AcDbArc
 50
36.86989764584012
 51
89.99999999999991
  0
ARC
  5
46B
330
1F
100
AcDbEntity
  8
1
  6
Continuous
 62
     7
370
     9
100
AcDbCircle
 10
553.1823456707182
 20
641.0769217466193
 30
0.0
 40
3.0
100
AcDbArc
 50
179.9999999999998
 51
233.1301023541608
  0
ARC
  5
46C
330
1F
100
AcDbEntity
  8
1
  6
Continuous
 62
     7
370
     9
100
AcDbCircle
 10
550.1823456707182
 20
637.0769217466193
 30
0.0
 40
2.0
100
AcDbArc
 50
0.0
 51
53.13010235415533
  0
ARC
  5
46D
330
1F
100
AcDbEntity
  8
1
  6
Continuous
 62
     7
370
     9
100
AcDbCircle
 10
409.1823456707184
 20
795.5769217466192
 30
0.0
 40
12.0
100
AcDbArc
 50
270.0000000000007
 51
0.0
  0
ARC
  5
46E
330
1F
100
AcDbEntity
  8
1
  6
Continuous
 62
     7
370
     9
100
AcDbCircle
 10
550.1823456707182
 20
624.0769217466193
 30
0.0
 40
2.0
100
AcDbArc
 50
270.0000000000061
 51
0.0
  0
ARC
  5
46F
330
1F
100
AcDbEntity
  8
1
  6
Continuous
 62
     7
370
     9
100
AcDbCircle
 10
407.6823456707182
 20
786.5769217466192
 30
0.0
 40
3.0
100
AcDbArc
 50
216.8698976458463
 51
269.9999999999998
  0
ARC
  5
470
330
1F
100
AcDbEntity
  8
1
  6
Continuous
 62
     7
370
     9
100
AcDbCircle
 10
550.1823456707182
 20
801.0769217466193
 30
0.0
 40
2.0
100
AcDbArc
 50
306.8698976458515
 51
0.0
  0
ARC
  5
471
330
1F
100
AcDbEntity
  8
1
  6
Continuous
 62
     7
370
     9
100
AcDbCircle
 10
421.1823456707182
 20
814.0769217466193
 30
0.0
 40
2.0
100
AcDbArc
 50
89.99999999999991
 51
179.9999999999998
  0
ARC
  5
472
330
1F
100
AcDbEntity
  8
1
  6
Continuous
 62
     7
370
     9
100
AcDbCircle
 10
550.1823456707182
 20
814.0769217466193
 30
0.0
 40
2.0
100
AcDbArc
 50
0.0
 51
89.99999999999991
  0
ARC
  5
473
330
1F
100
AcDbEntity
  8
1
  6
Continuous
 62
     7
370
     9
100
AcDbCircle
 10
421.1823456707182
 20
801.0769217466193
 30
0.0
 40
2.0
100
AcDbArc
 50
179.9999999999998
 51
233.1301023541602
  0
ARC
  5
474
330
1F
100
AcDbEntity
  8
1
  6
Continuous
 62
     7
370
     9
100
AcDbCircle
 10
418.1823456707182
 20
797.0769217466193
 30
0.0
 40
3.0
100
AcDbArc
 50
0.0
 51
53.13010235415295
  0
ARC
  5
475
330
1F
100
AcDbEntity
  8
1
  6
Continuous
 62
     7
370
     9
100
AcDbCircle
 10
553.1823456707182
 20
797.0769217466193
 30
0.0
 40
3.0
100
AcDbArc
 50
126.8698976458436
 51
179.9999999999998
  0
LINE
  5
476
330
1F
100
AcDbEntity
  8
1
  6
Continuous
 62
     7
370
     9
100
AcDbLine
 10
708.182345670718
 20
651.821810587413
 30
0.0
 11
708.182345670718
 21
624.0769215759051
 31
0.0
  0
LINE
  5
477
330
1F
100
AcDbEntity
  8
1
  6
Continuous
 62
     7
370
     9
100
AcDbLine
 10
632.682345670718
 20
622.0769217466193
 30
0.0
 11
761.6823459091365
 21
622.0769217466193
 31
0.0
  0
LINE
  5
478
330
1F
100
AcDbEntity
  8
1
  6
Continuous
 62
     7
370
     9
100
AcDbLine
 10
630.9502948631493
 20
638.0769217466193
 30
0.0
 11
686.182345670718
 21
638.0769217466193
 31
0.0
  0
LINE
  5
479
330
1F
100
AcDbEntity
  8
1
  6
Continuous
 62
     7
370
     9
100
AcDbLine
 10
632.6823456707182
 20
641.0769217466193
 30
0.0
 11
632.6823456707182
 21
702.8905076903807
 31
0.0
  0
LINE
  5
47A
330
1F
100
AcDbEntity
  8
1
  6
Continuous
 62
     7
370
     9
100
AcDbLine
 10
630.682345670718
 20
624.0769217466193
 30
0.0
 11
630.682345670718
 21
637.0769217466193
 31
0.0
  0
LINE
  5
47B
330
1F
100
AcDbEntity
  8
1
  6
Continuous
 62
     7
370
     9
100
AcDbLine
 10
686.182345670718
 20
651.8218104166988
 30
0.0
 11
686.182345670718
 21
624.0769217466193
 31
0.0
  0
LINE
  5
47C
330
1F
100
AcDbEntity
  8
1
  6
Continuous
 62
     7
370
     9
100
AcDbLine
 10
761.682345670718
 20
641.0769217466193
 30
0.0
 11
761.682345670718
 21
702.8905076903807
 31
0.0
  0
LINE
  5
47D
330
1F
100
AcDbEntity
  8
1
  6
Continuous
 62
     7
370
     9
100
AcDbLine
 10
708.182345670718
 20
638.0769217466193
 30
0.0
 11
763.414396478287
 21
638.0769217466193
 31
0.0
  0
LINE
  5
47E
330
1F
100
AcDbEntity
  8
1
  6
Continuous
 62
     7
370
     9
100
AcDbLine
 10
763.6823456707182
 20
624.0769217466193
 30
0.0
 11
763.6823456707182
 21
637.0769217466193
 31
0.0
  0
LINE
  5
47F
330
1F
100
AcDbEntity
  8
1
  6
Continuous
 62
     7
370
     9
100
AcDbLine
 10
630.9502948631493
 20
800.0769217466193
 30
0.0
 11
686.182345670718
 21
800.0769217466193
 31
0.0
  0
LINE
  5
480
330
1F
100
AcDbEntity
  8
1
  6
Continuous
 62
     7
370
     9
100
AcDbLine
 10
708.182345670718
 20
800.0769217466193
 30
0.0
 11
763.414396478287
 21
800.0769217466193
 31
0.0
  0
LINE
  5
481
330
1F
100
AcDbEntity
  8
1
  6
Continuous
 62
     7
370
     9
100
AcDbLine
 10
686.182345670718
 20
786.3320330765398
 30
0.0
 11
686.182345670718
 21
814.0769217466193
 31
0.0
  0
LINE
  5
482
330
1F
100
AcDbEntity
  8
1
  6
Continuous
 62
     7
370
     9
100
AcDbLine
 10
632.682345670718
 20
816.0769217466193
 30
0.0
 11
761.682345670718
 21
816.0769217466193
 31
0.0
  0
LINE
  5
483
330
1F
100
AcDbEntity
  8
1
  6
Continuous
 62
     7
370
     9
100
AcDbLine
 10
763.6823456707182
 20
814.0769217466193
 30
0.0
 11
763.6823456707182
 21
801.0769217466193
 31
0.0
  0
LINE
  5
484
330
1F
100
AcDbEntity
  8
1
  6
Continuous
 62
     7
370
     9
100
AcDbLine
 10
630.682345670718
 20
814.0769217466193
 30
0.0
 11
630.682345670718
 21
801.0769217466193
 31
0.0
  0
LINE
  5
485
330
1F
100
AcDbEntity
  8
1
  6
Continuous
 62
     7
370
     9
100
AcDbLine
 10
761.682345670718
 20
797.0769217466193
 30
0.0
 11
761.682345670718
 21
735.2633358028579
 31
0.0
  0
LINE
  5
486
330
1F
100
AcDbEntity
  8
1
  6
Continuous
 62
     7
370
     9
100
AcDbLine
 10
632.6823456707182
 20
797.0769218062239
 30
0.0
 11
632.6823456707182
 21
735.2633358028581
 31
0.0
  0
LINE
  5
487
330
1F
100
AcDbEntity
  8
1
  6
Continuous
 62
     7
370
     9
100
AcDbLine
 10
708.182345670718
 20
786.3320329058256
 30
0.0
 11
708.182345670718
 21
814.0769219173336
 31
0.0
  0
ARC
  5
488
330
1F
100
AcDbEntity
  8
1
  6
Continuous
 62
     7
370
     9
100
AcDbCircle
 10
761.682345670718
 20
624.0769217466193
 30
0.0
 40
2.0
100
AcDbArc
 50
269.9999999999998
 51
0.0
  0
ARC
  5
489
330
1F
100
AcDbEntity
  8
1
  6
Continuous
 62
     7
370
     9
100
AcDbCircle
 10
632.6823456707182
 20
624.0769217466193
 30
0.0
 40
2.0
100
AcDbArc
 50
179.9999999999998
 51
269.9999999999998
  0
ARC
  5
48A
330
1F
100
AcDbEntity
  8
1
  6
Continuous
 62
     7
370
     9
100
AcDbCircle
 10
684.182345670718
 20
814.0769217466193
 30
0.0
 40
2.0
100
AcDbArc
 50
0.0
 51
89.99999999999991
  0
ARC
  5
48B
330
1F
100
AcDbEntity
  8
1
  6
Continuous
 62
     7
370
     9
100
AcDbCircle
 10
710.182345670718
 20
786.3320330765398
 30
0.0
 40
2.0
100
AcDbArc
 50
179.9999999999998
 51
259.0599948332058
  0
ARC
  5
48C
330
1F
100
AcDbEntity
  8
1
  6
Continuous
 62
     7
370
     9
100
AcDbCircle
 10
761.682345670718
 20
637.0769217466193
 30
0.0
 40
2.0
100
AcDbArc
 50
0.0
 51
53.13010235415533
  0
ARC
  5
48D
330
1F
100
AcDbEntity
  8
1
  6
Continuous
 62
     7
370
     9
100
AcDbCircle
 10
684.182345670718
 20
651.8218104166988
 30
0.0
 40
2.0
100
AcDbArc
 50
0.0
 51
79.05999483319974
  0
ARC
  5
48E
330
1F
100
AcDbEntity
  8
1
  6
Continuous
 62
     7
370
     9
100
AcDbCircle
 10
710.182345670718
 20
624.0769217466193
 30
0.0
 40
2.0
100
AcDbArc
 50
179.9999999999998
 51
269.9999999999998
  0
ARC
  5
48F
330
1F
100
AcDbEntity
  8
1
  6
Continuous
 62
     7
370
     9
100
AcDbCircle
 10
684.182345670718
 20
624.0769217466193
 30
0.0
 40
2.0
100
AcDbArc
 50
269.9999999999998
 51
0.0
  0
ARC
  5
490
330
1F
100
AcDbEntity
  8
1
  6
Continuous
 62
     7
370
     9
100
AcDbCircle
 10
710.182345670718
 20
651.8218104166988
 30
0.0
 40
2.0
100
AcDbArc
 50
100.9400051667939
 51
179.9999999999998
  0
ARC
  5
491
330
1F
100
AcDbEntity
  8
1
  6
Continuous
 62
     7
370
     9
100
AcDbCircle
 10
629.6823456707182
 20
641.0769217466193
 30
0.0
 40
3.0
100
AcDbArc
 50
306.8698976458432
 51
0.0
  0
ARC
  5
492
330
1F
100
AcDbEntity
  8
1
  6
Continuous
 62
     7
370
     9
100
AcDbCircle
 10
764.6823456707182
 20
641.0769217466193
 30
0.0
 40
3.0
100
AcDbArc
 50
179.9999999999998
 51
233.1301023541574
  0
ARC
  5
493
330
1F
100
AcDbEntity
  8
1
  6
Continuous
 62
     7
370
     9
100
AcDbCircle
 10
632.6823456707182
 20
637.0769217466193
 30
0.0
 40
2.0
100
AcDbArc
 50
126.8698976458447
 51
179.9999999999998
  0
ARC
  5
494
330
1F
100
AcDbEntity
  8
1
  6
Continuous
 62
     7
370
     9
100
AcDbCircle
 10
684.182345670718
 20
786.3320330765398
 30
0.0
 40
2.0
100
AcDbArc
 50
280.9400051668063
 51
0.0
  0
ARC
  5
495
330
1F
100
AcDbEntity
  8
1
  6
Continuous
 62
     7
370
     9
100
AcDbCircle
 10
710.182345670718
 20
814.0769217466193
 30
0.0
 40
2.0
100
AcDbArc
 50
89.99999999999991
 51
179.9999999999998
  0
ARC
  5
496
330
1F
100
AcDbEntity
  8
1
  6
Continuous
 62
     7
370
     9
100
AcDbCircle
 10
761.682345670718
 20
801.0769217466193
 30
0.0
 40
2.0
100
AcDbArc
 50
306.8698976458495
 51
0.0
  0
ARC
  5
497
330
1F
100
AcDbEntity
  8
1
  6
Continuous
 62
     7
370
     9
100
AcDbCircle
 10
632.6823456707182
 20
814.0769217466193
 30
0.0
 40
2.0
100
AcDbArc
 50
89.99999999999991
 51
179.9999999999998
  0
ARC
  5
498
330
1F
100
AcDbEntity
  8
1
  6
Continuous
 62
     7
370
     9
100
AcDbCircle
 10
761.682345670718
 20
814.0769217466193
 30
0.0
 40
2.0
100
AcDbArc
 50
0.0
 51
89.99999999999991
  0
ARC
  5
499
330
1F
100
AcDbEntity
  8
1
  6
Continuous
 62
     7
370
     9
100
AcDbCircle
 10
632.6823456707182
 20
801.0769217466193
 30
0.0
 40
2.0
100
AcDbArc
 50
179.9999999999998
 51
233.130102354155
  0
ARC
  5
49A
330
1F
100
AcDbEntity
  8
1
  6
Continuous
 62
     7
370
     9
100
AcDbCircle
 10
629.6823456707182
 20
797.0769217466193
 30
0.0
 40
3.0
100
AcDbArc
 50
0.0
 51
53.13010235415641
  0
ARC
  5
49B
330
1F
100
AcDbEntity
  8
1
  6
Continuous
 62
     7
370
     9
100
AcDbCircle
 10
764.6823456707182
 20
797.0769217466193
 30
0.0
 40
3.0
100
AcDbArc
 50
126.8698976458436
 51
179.9999999999998
  0
CIRCLE
  5
49C
330
1F
100
AcDbEntity
  8
1
  6
Continuous
 62
     7
370
     9
100
AcDbCircle
 10
697.182345670718
 20
719.0769217466193
 30
0.0
 40
54.12970471058051
  0
CIRCLE
  5
49D
330
1F
100
AcDbEntity
  8
1
  6
Continuous
 62
     7
370
     9
100
AcDbCircle
 10
697.182345670718
 20
719.0769217466193
 30
0.0
 40
66.5
  0
CIRCLE
  5
49E
330
1F
100
AcDbEntity
  8
1
  6
Continuous
 62
     7
370
     9
100
AcDbCircle
 10
697.182345670718
 20
719.0769217466193
 30
0.0
 40
56.95
  0
CIRCLE
  5
49F
330
1F
100
AcDbEntity
  8
1
  6
Continuous
 62
     7
370
     9
100
AcDbCircle
 10
697.182345670718
 20
719.0769217466193
 30
0.0
 40
56.50096701805765
  0
CIRCLE
  5
4A0
330
1F
100
AcDbEntity
  8
1
  6
Continuous
 62
     7
370
     9
100
AcDbCircle
 10
697.182345670718
 20
719.0769217466193
 30
0.0
 40
54.97425487945361
  0
LINE
  5
4A1
330
1F
100
AcDbEntity
  8
7
  6
DASHDOT
 62
     4
370
     9
100
AcDbLine
 10
384.6823456707183
 20
719.0769217466193
 30
0.0
 11
586.6823456707181
 21
719.0769217466193
 31
0.0
  0
LINE
  5
4A2
330
1F
100
AcDbEntity
  8
7
  6
DASHDOT
 62
     4
370
     9
100
AcDbLine
 10
485.6823456707181
 20
820.0769217466193
 30
0.0
 11
485.6823456707181
 21
618.0769217466193
 31
0.0
  0
LINE
  5
4A3
330
1F
100
AcDbEntity
  8
7
  6
DASHDOT
 62
     4
370
     9
100
AcDbLine
 10
626.682345670718
 20
719.0769217466193
 30
0.0
 11
767.682345670718
 21
719.0769217466193
 31
0.0
  0
LINE
  5
4A4
330
1F
100
AcDbEntity
  8
7
  6
DASHDOT
 62
     4
370
     9
100
AcDbLine
 10
697.182345670718
 20
820.0769217466193
 30
0.0
 11
697.182345670718
 21
618.0769217466193
 31
0.0
  0
LINE
  5
4A5
330
1F
100
AcDbEntity
  8
7
  6
DASHDOT
 62
     4
370
     9
100
AcDbLine
 10
75.542768273717
 20
436.5397911089838
 30
0.0
 11
75.542768273717
 21
332.5397911089838
 31
0.0
  0
LINE
  5
4A6
330
1F
100
AcDbEntity
  8
7
  6
DASHDOT
 62
     4
370
     9
100
AcDbLine
 10
23.542768273717
 20
384.5397911089838
 30
0.0
 11
127.542768273717
 21
384.5397911089838
 31
0.0
  0
LINE
  5
4A7
330
1F
100
AcDbEntity
  8
7
  6
DASHDOT
 62
     4
370
     9
100
AcDbLine
 10
139.542768273717
 20
384.5397911089838
 30
0.0
 11
206.042768273717
 21
384.5397911089838
 31
0.0
  0
LINE
  5
4A8
330
1F
100
AcDbEntity
  8
7
  6
DASHDOT
 62
     4
370
     9
100
AcDbLine
 10
172.792768273717
 20
332.5397911089838
 30
0.0
 11
172.792768273717
 21
438.053432865841
 31
0.0
  0
LINE
  5
4A9
330
1F
100
AcDbEntity
  8
7
  6
DASHDOT
 62
     4
370
     9
100
AcDbLine
 10
288.042768888117
 20
393.5397911089839
 30
0.0
 11
410.042768888117
 21
393.5397911089839
 31
0.0
  0
LINE
  5
4AA
330
1F
100
AcDbEntity
  8
7
  6
DASHDOT
 62
     4
370
     9
100
AcDbLine
 10
349.042768888117
 20
454.5397911089838
 30
0.0
 11
349.042768888117
 21
332.5397911089839
 31
0.0
  0
LINE
  5
4AB
330
1F
100
AcDbEntity
  8
7
  6
DASHDOT
 62
     4
370
     9
100
AcDbLine
 10
461.542768273717
 20
454.539791108984
 30
0.0
 11
461.542768273717
 21
332.5397911089838
 31
0.0
  0
LINE
  5
4AC
330
1F
100
AcDbEntity
  8
7
  6
DASHDOT
 62
     4
370
     9
100
AcDbLine
 10
422.042768273717
 20
393.5397911089839
 30
0.0
 11
501.042768273717
 21
393.5397911089839
 31
0.0
  0
LINE
  5
4AD
330
1F
100
AcDbEntity
  8
7
  6
DASHDOT
 62
     4
370
     9
100
AcDbLine
 10
656.0427682737172
 20
478.5397911089838
 30
0.0
 11
656.0427682737172
 21
332.5397911089838
 31
0.0
  0
LINE
  5
4AE
330
1F
100
AcDbEntity
  8
7
  6
DASHDOT
 62
     4
370
     9
100
AcDbLine
 10
583.0427682737172
 20
405.5397911089838
 30
0.0
 11
729.0427682737172
 21
405.5397911089838
 31
0.0
  0
LINE
  5
4AF
330
1F
100
AcDbEntity
  8
7
  6
DASHDOT
 62
     4
370
     9
100
AcDbLine
 10
790.5427682737171
 20
478.5397911089838
 30
0.0
 11
790.5427682737171
 21
332.5397911089838
 31
0.0
  0
LINE
  5
4B0
330
1F
100
AcDbEntity
  8
7
  6
DASHDOT
 62
     4
370
     9
100
AcDbLine
 10
741.0427682737171
 20
405.5397911089838
 30
0.0
 11
840.0427682737171
 21
405.5397911089838
 31
0.0
  0
LINE
  5
4B1
330
1F
100
AcDbEntity
  8
7
  6
DASHDOT
 62
     4
370
     9
100
AcDbLine
 10
922.0427684785172
 20
414.5397911089838
 30
0.0
 11
1086.042768478517
 21
414.5397911089838
 31
0.0
  0
LINE
  5
4B2
330
1F
100
AcDbEntity
  8
7
  6
DASHDOT
 62
     4
370
     9
100
AcDbLine
 10
1004.042768478517
 20
496.5397911089838
 30
0.0
 11
1004.042768478517
 21
332.5397911089838
 31
0.0
  0
LINE
  5
4B3
330
1F
100
AcDbEntity
  8
7
  6
DASHDOT
 62
     4
370
     9
100
AcDbLine
 10
1098.042768273717
 20
414.5397911089838
 30
0.0
 11
1211.042768273717
 21
414.5397911089838
 31
0.0
  0
LINE
  5
4B4
330
1F
100
AcDbEntity
  8
7
  6
DASHDOT
 62
     4
370
     9
100
AcDbLine
 10
1154.542768273717
 20
496.5397911089838
 30
0.0
 11
1154.542768273717
 21
332.5397911089838
 31
0.0
  0
LINE
  5
4B5
330
1F
100
AcDbEntity
  8
7
  6
DASHDOT
 62
     4
370
     9
100
AcDbLine
 10
40.54587869362365
 20
98.16796362863545
 30
0.0
 11
82.54587869362365
 21
98.16796362863545
 31
0.0
  0
LINE
  5
4B6
330
1F
100
AcDbEntity
  8
7
  6
DASHDOT
 62
     4
370
     9
100
AcDbLine
 10
61.54587869362365
 20
119.1679636286354
 30
0.0
 11
61.54587869362365
 21
77.16796267496113
 31
0.0
  0
LINE
  5
4B7
330
1F
100
AcDbEntity
  8
7
  6
DASHDOT
 62
     4
370
     9
100
AcDbLine
 10
107.0458786936236
 20
77.16796458230976
 30
0.0
 11
107.0458786936236
 21
119.1679636286354
 31
0.0
  0
LINE
  5
4B8
330
1F
100
AcDbEntity
  8
7
  6
DASHDOT
 62
     4
370
     9
100
AcDbLine
 10
119.5458786936236
 20
98.16796362863545
 30
0.0
 11
94.54587869362365
 21
98.16796362863545
 31
0.0
  0
LINE
  5
4B9
330
1F
100
AcDbEntity
  8
7
  6
DASHDOT
 62
     4
370
     9
100
AcDbLine
 10
171.545876786275
 20
100.1679636286354
 30
0.0
 11
217.545876786275
 21
100.1679636286354
 31
0.0
  0
LINE
  5
4BA
330
1F
100
AcDbEntity
  8
7
  6
DASHDOT
 62
     4
370
     9
100
AcDbLine
 10
194.545876786275
 20
123.1679636286354
 30
0.0
 11
194.545876786275
 21
77.16796267496113
 31
0.0
  0
LINE
  5
4BB
330
1F
100
AcDbEntity
  8
7
  6
DASHDOT
 62
     4
370
     9
100
AcDbLine
 10
244.045876786275
 20
77.16796458230974
 30
0.0
 11
244.045876786275
 21
123.1679636286355
 31
0.0
  0
LINE
  5
4BC
330
1F
100
AcDbEntity
  8
7
  6
DASHDOT
 62
     4
370
     9
100
AcDbLine
 10
258.545876786275
 20
100.1679636286354
 30
0.0
 11
229.545876786275
 21
100.1679636286354
 31
0.0
  0
LINE
  5
4BD
330
1F
100
AcDbEntity
  8
7
  6
DASHDOT
 62
     4
370
     9
100
AcDbLine
 10
310.5458729729542
 20
104.1679636286354
 30
0.0
 11
364.5458729729542
 21
104.1679636286354
 31
0.0
  0
LINE
  5
4BE
330
1F
100
AcDbEntity
  8
7
  6
DASHDOT
 62
     4
370
     9
100
AcDbLine
 10
337.5458729729542
 20
131.1679645823098
 30
0.0
 11
337.5458729729542
 21
77.16796267496113
 31
0.0
  0
LINE
  5
4BF
330
1F
100
AcDbEntity
  8
7
  6
DASHDOT
 62
     4
370
     9
100
AcDbLine
 10
393.0458729729542
 20
77.16796579224443
 30
0.0
 11
393.0458729729542
 21
131.1679657922445
 31
0.0
  0
LINE
  5
4C0
330
1F
100
AcDbEntity
  8
7
  6
DASHDOT
 62
     4
370
     9
100
AcDbLine
 10
409.5458729729542
 20
104.1679638848958
 30
0.0
 11
376.5458729729542
 21
104.1679638848958
 31
0.0
  0
LINE
  5
4C1
330
1F
100
AcDbEntity
  8
7
  6
DASHDOT
 62
     4
370
     9
100
AcDbLine
 10
461.5458710656056
 20
108.1679655359841
 30
0.0
 11
523.5458710656056
 21
108.1679655359841
 31
0.0
  0
LINE
  5
4C2
330
1F
100
AcDbEntity
  8
7
  6
DASHDOT
 62
     4
370
     9
100
AcDbLine
 10
492.5458710656056
 20
139.1679664896584
 30
0.0
 11
492.5458710656056
 21
77.16796267496113
 31
0.0
  0
LINE
  5
4C3
330
1F
100
AcDbEntity
  8
7
  6
DASHDOT
 62
     4
370
     9
100
AcDbLine
 10
572.5458710656056
 20
108.1679655359841
 30
0.0
 11
535.5458710656056
 21
108.1679655359841
 31
0.0
  0
LINE
  5
4C4
330
1F
100
AcDbEntity
  8
7
  6
DASHDOT
 62
     4
370
     9
100
AcDbLine
 10
554.0458710656056
 20
77.16796744333271
 30
0.0
 11
554.0458710656056
 21
139.1679674433327
 31
0.0
  0
LINE
  5
4C5
330
1F
100
AcDbEntity
  8
7
  6
DASHDOT
 62
     4
370
     9
100
AcDbLine
 10
624.5458710656056
 20
113.1679636286354
 30
0.0
 11
696.5458710656056
 21
113.1679636286354
 31
0.0
  0
LINE
  5
4C6
330
1F
100
AcDbEntity
  8
7
  6
DASHDOT
 62
     4
370
     9
100
AcDbLine
 10
660.5458710656056
 20
149.1679626749611
 30
0.0
 11
660.5458710656056
 21
77.16796267496113
 31
0.0
  0
LINE
  5
4C7
330
1F
100
AcDbEntity
  8
7
  6
DASHDOT
 62
     4
370
     9
100
AcDbLine
 10
730.0458710656056
 20
77.16796267496113
 30
0.0
 11
730.0458710656056
 21
149.1679626749611
 31
0.0
  0
LINE
  5
4C8
330
1F
100
AcDbEntity
  8
7
  6
DASHDOT
 62
     4
370
     9
100
AcDbLine
 10
751.5458710656056
 20
113.1679636286354
 30
0.0
 11
708.5458710656056
 21
113.1679636286354
 31
0.0
  0
LINE
  5
4C9
330
1F
100
AcDbEntity
  8
7
  6
DASHDOT
 62
     4
370
     9
100
AcDbLine
 10
845.5458710656056
 20
161.1679626749611
 30
0.0
 11
845.5458710656056
 21
77.16796267496113
 31
0.0
  0
LINE
  5
4CA
330
1F
100
AcDbEntity
  8
7
  6
DASHDOT
 62
     4
370
     9
100
AcDbLine
 10
803.5458710656056
 20
119.1679636286354
 30
0.0
 11
887.5458710656056
 21
119.1679636286354
 31
0.0
  0
LINE
  5
4CB
330
1F
100
AcDbEntity
  8
7
  6
DASHDOT
 62
     4
370
     9
100
AcDbLine
 10
924.5458710656056
 20
77.16796362863545
 30
0.0
 11
924.5458710656056
 21
161.1679636286354
 31
0.0
  0
LINE
  5
4CC
330
1F
100
AcDbEntity
  8
7
  6
DASHDOT
 62
     4
370
     9
100
AcDbLine
 10
949.5458710656056
 20
119.1679636286354
 30
0.0
 11
899.5458710656056
 21
119.1679636286354
 31
0.0
  0
LINE
  5
4CD
330
1F
100
AcDbEntity
  8
7
  6
DASHDOT
 62
     4
370
     9
100
AcDbLine
 10
1051.545871065606
 20
177.1679626749611
 30
0.0
 11
1051.545871065606
 21
77.16796267496113
 31
0.0
  0
LINE
  5
4CE
330
1F
100
AcDbEntity
  8
7
  6
DASHDOT
 62
     4
370
     9
100
AcDbLine
 10
1001.545871065606
 20
127.1679626749611
 30
0.0
 11
1101.545871065606
 21
127.1679626749611
 31
0.0
  0
LINE
  5
4CF
330
1F
100
AcDbEntity
  8
7
  6
DASHDOT
 62
     4
370
     9
100
AcDbLine
 10
1113.545871065606
 20
127.1679626749611
 30
0.0
 11
1172.545871065606
 21
127.1679626749611
 31
0.0
  0
LINE
  5
4D0
330
1F
100
AcDbEntity
  8
7
  6
DASHDOT
 62
     4
370
     9
100
AcDbLine
 10
1143.045871065606
 20
77.16796267496113
 30
0.0
 11
1143.045871065606
 21
177.1679626749611
 31
0.0
  0
MTEXT
  5
4D1
330
1F
100
AcDbEntity
  8
1
  6
Continuous
 62
     7
370
     9
100
AcDbMText
 10
87.00139630523249
 20
28.77449455676516
 30
0.0
 40
25.0
 41
41.97635135135135
 46
25.0
 71
     8
 72
     1
  1
{\fＭＳ 明朝;\T0.750000;6A}
 73
     1
 44
1.0
1001
ACAD
1000
ACAD_MTEXT_DEFINED_HEIGHT_BEGIN
1070
    46
1040
25.0
1000
ACAD_MTEXT_DEFINED_HEIGHT_END
  0
MTEXT
  5
4D2
330
1F
100
AcDbEntity
  8
1
  6
Continuous
 62
     7
370
     9
100
AcDbMText
 10
222.8396886036363
 20
28.77449455676516
 30
0.0
 40
25.0
 41
42.18956456456456
 46
25.0
 71
     8
 72
     1
  1
{\fＭＳ 明朝;\T0.750000;8A}
 73
     1
 44
1.0
1001
ACAD
1000
ACAD_MTEXT_DEFINED_HEIGHT_BEGIN
1070
    46
1040
25.0
1000
ACAD_MTEXT_DEFINED_HEIGHT_END
  0
MTEXT
  5
4D3
330
1F
100
AcDbEntity
  8
1
  6
Continuous
 62
     7
370
     9
100
AcDbMText
 10
368.3807160662118
 20
28.77449455676516
 30
0.0
 40
25.0
 41
58.01176176176176
 46
25.0
 71
     8
 72
     1
  1
{\fＭＳ 明朝;\T0.750000;10A}
 73
     1
 44
1.0
1001
ACAD
1000
ACAD_MTEXT_DEFINED_HEIGHT_BEGIN
1070
    46
1040
25.0
1000
ACAD_MTEXT_DEFINED_HEIGHT_END
  0
MTEXT
  5
4D4
330
1F
100
AcDbEntity
  8
1
  6
Continuous
 62
     7
370
     9
100
AcDbMText
 10
526.4951103983351
 20
28.77449455676516
 30
0.0
 40
25.0
 41
58.01176176176176
 46
25.0
 71
     8
 72
     1
  1
{\fＭＳ 明朝;\T0.750000;15A}
 73
     1
 44
1.0
1001
ACAD
1000
ACAD_MTEXT_DEFINED_HEIGHT_BEGIN
1070
    46
1040
25.0
1000
ACAD_MTEXT_DEFINED_HEIGHT_END
  0
MTEXT
  5
4D5
330
1F
100
AcDbEntity
  8
1
  6
Continuous
 62
     7
370
     9
100
AcDbMText
 10
699.3358453790386
 20
28.77449455676516
 30
0.0
 40
25.0
 41
61.28103103103103
 46
25.0
 71
     8
 72
     1
  1
{\fＭＳ 明朝;\T0.750000;20A}
 73
     1
 44
1.0
1001
ACAD
1000
ACAD_MTEXT_DEFINED_HEIGHT_BEGIN
1070
    46
1040
25.0
1000
ACAD_MTEXT_DEFINED_HEIGHT_END
  0
MTEXT
  5
4D6
330
1F
100
AcDbEntity
  8
1
  6
Continuous
 62
     7
370
     9
100
AcDbMText
 10
888.9697758361931
 20
28.77449455676516
 30
0.0
 40
25.0
 41
61.28103103103103
 46
25.0
 71
     8
 72
     1
  1
{\fＭＳ 明朝;\T0.750000;25A}
 73
     1
 44
1.0
1001
ACAD
1000
ACAD_MTEXT_DEFINED_HEIGHT_BEGIN
1070
    46
1040
25.0
1000
ACAD_MTEXT_DEFINED_HEIGHT_END
  0
MTEXT
  5
4D7
330
1F
100
AcDbEntity
  8
1
  6
Continuous
 62
     7
370
     9
100
AcDbMText
 10
1098.884719291831
 20
28.77449455676516
 30
0.0
 40
25.0
 41
60.8546046046046
 46
25.0
 71
     8
 72
     1
  1
{\fＭＳ 明朝;\T0.750000;32A}
 73
     1
 44
1.0
1001
ACAD
1000
ACAD_MTEXT_DEFINED_HEIGHT_BEGIN
1070
    46
1040
25.0
1000
ACAD_MTEXT_DEFINED_HEIGHT_END
  0
MTEXT
  5
4D8
330
1F
100
AcDbEntity
  8
1
  6
Continuous
 62
     7
370
     9
100
AcDbMText
 10
124.3909257315551
 20
283.8211508553654
 30
0.0
 40
25.0
 41
62.09834834834835
 46
25.0
 71
     8
 72
     1
  1
{\fＭＳ 明朝;\T0.750000;40A}
 73
     1
 44
1.0
1001
ACAD
1000
ACAD_MTEXT_DEFINED_HEIGHT_BEGIN
1070
    46
1040
25.0
1000
ACAD_MTEXT_DEFINED_HEIGHT_END
  0
MTEXT
  5
4D9
330
1F
100
AcDbEntity
  8
1
  6
Continuous
 62
     7
370
     9
100
AcDbMText
 10
406.9041450161577
 20
283.8211508553654
 30
0.0
 40
25.0
 41
60.8546046046046
 46
25.0
 71
     8
 72
     1
  1
{\fＭＳ 明朝;\T0.750000;50A}
 73
     1
 44
1.0
1001
ACAD
1000
ACAD_MTEXT_DEFINED_HEIGHT_BEGIN
1070
    46
1040
25.0
1000
ACAD_MTEXT_DEFINED_HEIGHT_END
  0
MTEXT
  5
4DA
330
1F
100
AcDbEntity
  8
1
  6
Continuous
 62
     7
370
     9
100
AcDbMText
 10
727.008286482662
 20
283.8211508553654
 30
0.0
 40
25.0
 41
61.45870870870871
 46
25.0
 71
     8
 72
     1
  1
{\fＭＳ 明朝;\T0.750000;65A}
 73
     1
 44
1.0
1001
ACAD
1000
ACAD_MTEXT_DEFINED_HEIGHT_BEGIN
1070
    46
1040
25.0
1000
ACAD_MTEXT_DEFINED_HEIGHT_END
  0
MTEXT
  5
4DB
330
1F
100
AcDbEntity
  8
1
  6
Continuous
 62
     7
370
     9
100
AcDbMText
 10
1086.301933162
 20
283.8211508553654
 30
0.0
 40
25.0
 41
61.67192192192192
 46
25.0
 71
     8
 72
     1
  1
{\fＭＳ 明朝;\T0.750000;80A}
 73
     1
 44
1.0
1001
ACAD
1000
ACAD_MTEXT_DEFINED_HEIGHT_BEGIN
1070
    46
1040
25.0
1000
ACAD_MTEXT_DEFINED_HEIGHT_END
  0
MTEXT
  5
4DC
330
1F
100
AcDbEntity
  8
1
  6
Continuous
 62
     7
370
     9
100
AcDbMText
 10
594.0110225001728
 20
565.0264385692069
 30
0.0
 40
25.0
 41
77.49411911911912
 46
25.0
 71
     8
 72
     1
  1
{\fＭＳ 明朝;\T0.750000;100A}
 73
     1
 44
1.0
1001
ACAD
1000
ACAD_MTEXT_DEFINED_HEIGHT_BEGIN
1070
    46
1040
25.0
1000
ACAD_MTEXT_DEFINED_HEIGHT_END
  0
VIEWPORT
  5
3F
330
1B
100
AcDbEntity
 67
     1
  8
0
100
AcDbViewport
 10
594.5
 20
420.5
 30
0.0
 40
1189.0
 41
841.0
 68
     1
 69
     1
 12
594.5
 22
420.5
 13
0.0
 23
0.0
 14
0.5
 24
0.5
 15
0.5
 25
0.5
 16
0.0
 26
0.0
 36
1.0
 17
0.0
 27
0.0
 37
0.0
 42
50.0
 43
0.0
 44
0.0
 45
9.0
 50
0.0
 51
0.0
 72
   100
 90
   557152
  1

281
     0
 71
     1
 74
     0
110
0.0
120
0.0
130
0.0
111
1.0
121
0.0
131
0.0
112
0.0
122
1.0
132
0.0
 79
     0
146
0.0
170
     0
 61
     5
292
     1
282
     1
141
0.0
142
0.0
 63
   256
  0
ENDSEC
  0
SECTION
  2
OBJECTS
  0
DICTIONARY
  5
C
330
0
100
AcDbDictionary
281
     1
  3
ACAD_GROUP
350
D
  3
ACAD_LAYOUT
350
1A
  3
ACAD_MATERIAL
350
3B
  3
ACAD_MLEADERSTYLE
350
4FE
  3
ACAD_MLINESTYLE
350
17
  3
ACAD_PLOTSETTINGS
350
19
  3
ACAD_PLOTSTYLENAME
350
E
  3
ACAD_TABLESTYLE
350
4FD
  3
ACAD_VISUALSTYLE
350
2A
  0
DICTIONARY
  5
D
102
{ACAD_REACTORS
330
C
102
}
330
C
100
AcDbDictionary
281
     1
  0
DICTIONARY
  5
1A
102
{ACAD_REACTORS
330
C
102
}
330
C
100
AcDbDictionary
281
     1
  3
Layout1
350
1E
  3
Layout2
350
26
  3
Model
350
22
  0
DICTIONARY
  5
3B
102
{ACAD_REACTORS
330
C
102
}
330
C
100
AcDbDictionary
281
     1
  3
ByBlock
350
3D
  3
ByLayer
350
3C
  3
Global
350
3E
  0
DICTIONARY
  5
4FE
102
{ACAD_REACTORS
330
C
102
}
330
C
100
AcDbDictionary
281
     1
  0
DICTIONARY
  5
17
102
{ACAD_REACTORS
330
C
102
}
330
C
100
AcDbDictionary
281
     1
  3
Standard
350
18
  0
DICTIONARY
  5
19
102
{ACAD_REACTORS
330
C
102
}
330
C
100
AcDbDictionary
281
     1
  0
ACDBDICTIONARYWDFLT
  5
E
102
{ACAD_REACTORS
330
C
102
}
330
C
100
AcDbDictionary
281
     1
  3
Normal
350
F
100
AcDbDictionaryWithDefault
340
F
  0
DICTIONARY
  5
4FD
102
{ACAD_REACTORS
330
C
102
}
330
C
100
AcDbDictionary
281
     1
  0
DICTIONARY
  5
2A
102
{ACAD_REACTORS
330
C
102
}
330
C
100
AcDbDictionary
281
     1
  3
2dWireframe
350
2F
  3
3D Hidden
350
31
  3
3dWireframe
350
30
  3
Basic
350
32
  3
Brighten
350
36
  3
ColorChange
350
3A
  3
Conceptual
350
34
  3
Dim
350
35
  3
Facepattern
350
39
  3
Flat
350
2B
  3
FlatWithEdges
350
2C
  3
Gouraud
350
2D
  3
GouraudWithEdges
350
2E
  3
Linepattern
350
38
  3
Realistic
350
33
  3
Thicken
350
37
  0
LAYOUT
  5
1E
102
{ACAD_REACTORS
330
1A
102
}
330
1A
100
AcDbPlotSettings
  1

  2
none_device
  4

  6

 40
0.0
 41
0.0
 42
0.0
 43
0.0
 44
0.0
 45
0.0
 46
0.0
 47
0.0
 48
0.0
 49
0.0
140
0.0
141
0.0
142
1.0
143
1.0
 70
   688
 72
     0
 73
     0
 74
     5
  7

 75
    16
 76
     0
 77
     2
 78
   300
147
1.0
148
0.0
149
0.0
100
AcDbLayout
  1
Layout1
 70
     1
 71
     1
 10
0.0
 20
0.0
 11
1189.0
 21
841.0
 12
0.0
 22
0.0
 32
0.0
 14
0.0
 24
0.0
 34
0.0
 15
1189.0
 25
841.0
 35
0.0
146
0.0
 13
0.0
 23
0.0
 33
0.0
 16
1.0
 26
0.0
 36
0.0
 17
0.0
 27
1.0
 37
0.0
 76
     0
330
1B
331
3F
  0
LAYOUT
  5
26
102
{ACAD_REACTORS
330
1A
102
}
330
1A
100
AcDbPlotSettings
  1

  2
none_device
  4

  6

 40
0.0
 41
0.0
 42
0.0
 43
0.0
 44
0.0
 45
0.0
 46
0.0
 47
0.0
 48
0.0
 49
0.0
140
0.0
141
0.0
142
1.0
143
1.0
 70
   688
 72
     0
 73
     0
 74
     5
  7

 75
    16
 76
     0
 77
     2
 78
   300
147
1.0
148
0.0
149
0.0
100
AcDbLayout
  1
Layout2
 70
     1
 71
     2
 10
0.0
 20
0.0
 11
0.0
 21
0.0
 12
0.0
 22
0.0
 32
0.0
 14
0.0
 24
0.0
 34
0.0
 15
0.0
 25
0.0
 35
0.0
146
0.0
 13
0.0
 23
0.0
 33
0.0
 16
1.0
 26
0.0
 36
0.0
 17
0.0
 27
1.0
 37
0.0
 76
     0
330
23
  0
LAYOUT
  5
22
102
{ACAD_REACTORS
330
1A
102
}
330
1A
100
AcDbPlotSettings
  1

  2
none_device
  4

  6

 40
0.0
 41
0.0
 42
0.0
 43
0.0
 44
0.0
 45
0.0
 46
0.0
 47
0.0
 48
0.0
 49
0.0
140
0.0
141
0.0
142
1.0
143
1.0
 70
  1712
 72
     0
 73
     0
 74
     0
  7

 75
     0
 76
     0
 77
     2
 78
   300
147
1.0
148
0.0
149
0.0
100
AcDbLayout
  1
Model
 70
     1
 71
     0
 10
0.0
 20
0.0
 11
1189.0
 21
841.0
 12
0.0
 22
0.0
 32
0.0
 14
23.542768273717
 24
28.77449455676516
 34
0.0
 15
1211.042768273717
 25
820.0769217466193
 35
0.0
146
0.0
 13
0.0
 23
0.0
 33
0.0
 16
1.0
 26
0.0
 36
0.0
 17
0.0
 27
1.0
 37
0.0
 76
     0
330
1F
331
29
  0
MATERIAL
  5
3D
102
{ACAD_REACTORS
330
3B
102
}
330
3B
100
AcDbMaterial
  1
ByBlock
 72
     1
 94
      127
  0
MATERIAL
  5
3C
102
{ACAD_REACTORS
330
3B
102
}
330
3B
100
AcDbMaterial
  1
ByLayer
 72
     1
 94
      127
  0
MATERIAL
  5
3E
102
{ACAD_REACTORS
330
3B
102
}
330
3B
100
AcDbMaterial
  1
Global
 72
     1
 94
      127
  0
MLINESTYLE
  5
18
102
{ACAD_REACTORS
330
17
102
}
330
17
100
AcDbMlineStyle
  2
Standard
 70
     0
  3

 62
   256
 51
90.0
 52
90.0
 71
     2
 49
0.5
 62
   256
  6
BYLAYER
 49
-0.5
 62
   256
  6
BYLAYER
  0
ACDBPLACEHOLDER
  5
F
102
{ACAD_REACTORS
330
E
102
}
330
E
  0
VISUALSTYLE
  5
2F
102
{ACAD_REACTORS
330
2A
102
}
102
{ACAD_XDICTIONARY
360
4E5
102
}
330
2A
100
AcDbVisualStyle
  2
2dWireframe
 70
     4
 71
     0
 72
     2
 73
     0
 90
        0
 40
-0.6
 41
-30.0
 62
     5
 63
     7
421
 16777215
 74
     1
 91
        4
 64
     7
 65
   257
 75
     1
175
     1
 42
1.0
 92
        0
 66
   257
 43
1.0
 76
     1
 77
     6
 78
     2
 67
     7
 79
     5
170
     0
171
     0
290
     0
174
     0
 93
        1
 44
0.0
173
     0
291
     0
 45
0.0
  0
VISUALSTYLE
  5
31
102
{ACAD_REACTORS
330
2A
102
}
102
{ACAD_XDICTIONARY
360
4E9
102
}
330
2A
100
AcDbVisualStyle
  2
3D Hidden
 70
     6
 71
     1
 72
     2
 73
     2
 90
        0
 40
-0.6
 41
-30.0
 62
     5
 63
     7
421
 16777215
 74
     2
 91
        2
 64
     7
 65
   257
 75
     2
175
     1
 42
40.0
 92
        0
 66
   257
 43
1.0
 76
     1
 77
     6
 78
     2
 67
     7
 79
     3
170
     0
171
     0
290
     0
174
     0
 93
        1
 44
0.0
173
     0
291
     0
 45
0.0
  0
VISUALSTYLE
  5
30
102
{ACAD_REACTORS
330
2A
102
}
102
{ACAD_XDICTIONARY
360
4E7
102
}
330
2A
100
AcDbVisualStyle
  2
3dWireframe
 70
     5
 71
     0
 72
     2
 73
     0
 90
        0
 40
-0.6
 41
-30.0
 62
     5
 63
     7
421
 16777215
 74
     1
 91
        4
 64
     7
 65
   257
 75
     1
175
     1
 42
1.0
 92
        0
 66
   257
 43
1.0
 76
     1
 77
     6
 78
     2
 67
     7
 79
     5
170
     0
171
     0
290
     0
174
     0
 93
        1
 44
0.0
173
     0
291
     0
 45
0.0
  0
VISUALSTYLE
  5
32
102
{ACAD_REACTORS
330
2A
102
}
102
{ACAD_XDICTIONARY
360
4EB
102
}
330
2A
100
AcDbVisualStyle
  2
Basic
 70
     7
 71
     1
 72
     0
 73
     1
 90
        0
 40
-0.6
 41
-30.0
 62
     5
 63
     7
421
 16777215
 74
     0
 91
        4
 64
     7
 65
   257
 75
     1
175
     1
 42
1.0
 92
        8
 66
     7
 43
1.0
 76
     1
 77
     6
 78
     2
 67
     7
 79
     5
170
     0
171
     0
290
     0
174
     0
 93
        1
 44
0.0
173
     0
291
     1
 45
0.0
  0
VISUALSTYLE
  5
36
102
{ACAD_REACTORS
330
2A
102
}
102
{ACAD_XDICTIONARY
360
4F3
102
}
330
2A
100
AcDbVisualStyle
  2
Brighten
 70
    12
 71
     2
 72
     2
 73
     0
 90
        0
 40
-0.6
 41
-30.0
 62
     5
 63
     7
421
 16777215
 74
     1
 91
        4
 64
     7
 65
   257
 75
     1
175
     1
 42
1.0
 92
        8
 66
     7
 43
1.0
 76
     1
 77
     6
 78
     2
 67
     7
 79
     5
170
     0
171
     0
290
     0
174
     0
 93
        1
 44
50.0
173
     0
291
     1
 45
0.0
  0
VISUALSTYLE
  5
3A
102
{ACAD_REACTORS
330
2A
102
}
102
{ACAD_XDICTIONARY
360
4FB
102
}
330
2A
100
AcDbVisualStyle
  2
ColorChange
 70
    16
 71
     2
 72
     2
 73
     3
 90
        0
 40
-0.6
 41
-30.0
 62
     5
 63
     8
421
  8421504
 74
     1
 91
        4
 64
     7
 65
   257
 75
     1
175
     1
 42
1.0
 92
        8
 66
     8
424
  8421504
 43
1.0
 76
     1
 77
     6
 78
     2
 67
     7
 79
     5
170
     0
171
     0
290
     0
174
     0
 93
        1
 44
0.0
173
     0
291
     1
 45
0.0
  0
VISUALSTYLE
  5
34
102
{ACAD_REACTORS
330
2A
102
}
102
{ACAD_XDICTIONARY
360
4EF
102
}
330
2A
100
AcDbVisualStyle
  2
Conceptual
 70
     9
 71
     3
 72
     2
 73
     0
 90
        0
 40
-0.6
 41
-30.0
 62
     5
 63
     7
421
 16777215
 74
     2
 91
        2
 64
     7
 65
   257
 75
     1
175
     1
 42
40.0
 92
        8
 66
     7
 43
1.0
 76
     1
 77
     6
 78
     2
 67
     7
 79
     3
170
     0
171
     0
290
     0
174
     0
 93
        1
 44
0.0
173
     0
291
     0
 45
0.0
  0
VISUALSTYLE
  5
35
102
{ACAD_REACTORS
330
2A
102
}
102
{ACAD_XDICTIONARY
360
4F1
102
}
330
2A
100
AcDbVisualStyle
  2
Dim
 70
    11
 71
     2
 72
     2
 73
     0
 90
        0
 40
-0.6
 41
-30.0
 62
     5
 63
     7
421
 16777215
 74
     1
 91
        4
 64
     7
 65
   257
 75
     1
175
     1
 42
1.0
 92
        8
 66
     7
 43
1.0
 76
     1
 77
     6
 78
     2
 67
     7
 79
     5
170
     0
171
     0
290
     0
174
     0
 93
        1
 44
-50.0
173
     0
291
     1
 45
0.0
  0
VISUALSTYLE
  5
39
102
{ACAD_REACTORS
330
2A
102
}
102
{ACAD_XDICTIONARY
360
4F9
102
}
330
2A
100
AcDbVisualStyle
  2
Facepattern
 70
    15
 71
     2
 72
     2
 73
     0
 90
        0
 40
-0.6
 41
-30.0
 62
     5
 63
     7
421
 16777215
 74
     1
 91
        4
 64
     7
 65
   257
 75
     1
175
     1
 42
1.0
 92
        8
 66
     7
 43
1.0
 76
     1
 77
     6
 78
     2
 67
     7
 79
     5
170
     0
171
     0
290
     0
174
     0
 93
        1
 44
0.0
173
     0
291
     1
 45
0.0
  0
VISUALSTYLE
  5
2B
102
{ACAD_REACTORS
330
2A
102
}
102
{ACAD_XDICTIONARY
360
4DD
102
}
330
2A
100
AcDbVisualStyle
  2
Flat
 70
     0
 71
     2
 72
     1
 73
     1
 90
        2
 40
-0.6
 41
30.0
 62
     5
 63
     7
421
 16777215
 74
     0
 91
        4
 64
     7
 65
   257
 75
     1
175
     1
 42
1.0
 92
        8
 66
     7
 43
1.0
 76
     1
 77
     6
 78
     2
 67
     7
 79
     5
170
     0
171
     0
290
     0
174
     0
 93
       13
 44
0.0
173
     0
291
     1
 45
0.0
  0
VISUALSTYLE
  5
2C
102
{ACAD_REACTORS
330
2A
102
}
102
{ACAD_XDICTIONARY
360
4DF
102
}
330
2A
100
AcDbVisualStyle
  2
FlatWithEdges
 70
     1
 71
     2
 72
     1
 73
     1
 90
        2
 40
-0.6
 41
30.0
 62
     5
 63
     7
421
 16777215
 74
     1
 91
        4
 64
     7
 65
   257
 75
     1
175
     1
 42
1.0
 92
        0
 66
   257
 43
1.0
 76
     1
 77
     6
 78
     2
 67
     7
 79
     5
170
     0
171
     0
290
     0
174
     0
 93
       13
 44
0.0
173
     0
291
     1
 45
0.0
  0
VISUALSTYLE
  5
2D
102
{ACAD_REACTORS
330
2A
102
}
102
{ACAD_XDICTIONARY
360
4E1
102
}
330
2A
100
AcDbVisualStyle
  2
Gouraud
 70
     2
 71
     2
 72
     2
 73
     1
 90
        2
 40
-0.6
 41
30.0
 62
     5
 63
     7
421
 16777215
 74
     0
 91
        4
 64
     7
 65
   257
 75
     1
175
     1
 42
1.0
 92
        0
 66
     7
 43
1.0
 76
     1
 77
     6
 78
     2
 67
     7
 79
     5
170
     0
171
     0
290
     0
174
     0
 93
       13
 44
0.0
173
     0
291
     1
 45
0.0
  0
VISUALSTYLE
  5
2E
102
{ACAD_REACTORS
330
2A
102
}
102
{ACAD_XDICTIONARY
360
4E3
102
}
330
2A
100
AcDbVisualStyle
  2
GouraudWithEdges
 70
     3
 71
     2
 72
     2
 73
     1
 90
        2
 40
-0.6
 41
30.0
 62
     5
 63
     7
421
 16777215
 74
     1
 91
        4
 64
     7
 65
   257
 75
     1
175
     1
 42
1.0
 92
        0
 66
   257
 43
1.0
 76
     1
 77
     6
 78
     2
 67
     7
 79
     5
170
     0
171
     0
290
     0
174
     0
 93
       13
 44
0.0
173
     0
291
     1
 45
0.0
  0
VISUALSTYLE
  5
38
102
{ACAD_REACTORS
330
2A
102
}
102
{ACAD_XDICTIONARY
360
4F7
102
}
330
2A
100
AcDbVisualStyle
  2
Linepattern
 70
    14
 71
     2
 72
     2
 73
     0
 90
        0
 40
-0.6
 41
-30.0
 62
     5
 63
     7
421
 16777215
 74
     1
 91
        4
 64
     7
 65
   257
 75
     7
175
     7
 42
1.0
 92
        8
 66
     7
 43
1.0
 76
     1
 77
     6
 78
     2
 67
     7
 79
     5
170
     0
171
     0
290
     0
174
     0
 93
        1
 44
0.0
173
     0
291
     1
 45
0.0
  0
VISUALSTYLE
  5
33
102
{ACAD_REACTORS
330
2A
102
}
102
{ACAD_XDICTIONARY
360
4ED
102
}
330
2A
100
AcDbVisualStyle
  2
Realistic
 70
     8
 71
     2
 72
     2
 73
     0
 90
        0
 40
-0.6
 41
-30.0
 62
     5
 63
     7
421
 16777215
 74
     1
 91
        0
 64
     7
 65
   257
 75
     1
175
     1
 42
1.0
 92
        8
 66
     8
424
  7895160
 43
1.0
 76
     1
 77
     6
 78
     2
 67
     7
 79
     5
170
     0
171
     0
290
     0
174
     0
 93
       13
 44
0.0
173
     0
291
     0
 45
0.0
  0
VISUALSTYLE
  5
37
102
{ACAD_REACTORS
330
2A
102
}
102
{ACAD_XDICTIONARY
360
4F5
102
}
330
2A
100
AcDbVisualStyle
  2
Thicken
 70
    13
 71
     2
 72
     2
 73
     0
 90
        0
 40
-0.6
 41
-30.0
 62
     5
 63
     7
421
 16777215
 74
     1
 91
        4
 64
     7
 65
   257
 75
     1
175
     1
 42
1.0
 92
       12
 66
     7
 43
1.0
 76
     1
 77
     6
 78
     2
 67
     7
 79
     5
170
     0
171
     0
290
     0
174
     0
 93
        1
 44
0.0
173
     0
291
     1
 45
0.0
  0
DICTIONARY
  5
4E5
330
2F
100
AcDbDictionary
280
     1
281
     1
  3
ACAD_XREC_ROUNDTRIP
360
4E6
  0
DICTIONARY
  5
4E9
330
31
100
AcDbDictionary
280
     1
281
     1
  3
ACAD_XREC_ROUNDTRIP
360
4EA
  0
DICTIONARY
  5
4E7
330
30
100
AcDbDictionary
280
     1
281
     1
  3
ACAD_XREC_ROUNDTRIP
360
4E8
  0
DICTIONARY
  5
4EB
330
32
100
AcDbDictionary
280
     1
281
     1
  3
ACAD_XREC_ROUNDTRIP
360
4EC
  0
DICTIONARY
  5
4F3
330
36
100
AcDbDictionary
280
     1
281
     1
  3
ACAD_XREC_ROUNDTRIP
360
4F4
  0
DICTIONARY
  5
4FB
330
3A
100
AcDbDictionary
280
     1
281
     1
  3
ACAD_XREC_ROUNDTRIP
360
4FC
  0
DICTIONARY
  5
4EF
330
34
100
AcDbDictionary
280
     1
281
     1
  3
ACAD_XREC_ROUNDTRIP
360
4F0
  0
DICTIONARY
  5
4F1
330
35
100
AcDbDictionary
280
     1
281
     1
  3
ACAD_XREC_ROUNDTRIP
360
4F2
  0
DICTIONARY
  5
4F9
330
39
100
AcDbDictionary
280
     1
281
     1
  3
ACAD_XREC_ROUNDTRIP
360
4FA
  0
DICTIONARY
  5
4DD
330
2B
100
AcDbDictionary
280
     1
281
     1
  3
ACAD_XREC_ROUNDTRIP
360
4DE
  0
DICTIONARY
  5
4DF
330
2C
100
AcDbDictionary
280
     1
281
     1
  3
ACAD_XREC_ROUNDTRIP
360
4E0
  0
DICTIONARY
  5
4E1
330
2D
100
AcDbDictionary
280
     1
281
     1
  3
ACAD_XREC_ROUNDTRIP
360
4E2
  0
DICTIONARY
  5
4E3
330
2E
100
AcDbDictionary
280
     1
281
     1
  3
ACAD_XREC_ROUNDTRIP
360
4E4
  0
DICTIONARY
  5
4F7
330
38
100
AcDbDictionary
280
     1
281
     1
  3
ACAD_XREC_ROUNDTRIP
360
4F8
  0
DICTIONARY
  5
4ED
330
33
100
AcDbDictionary
280
     1
281
     1
  3
ACAD_XREC_ROUNDTRIP
360
4EE
  0
DICTIONARY
  5
4F5
330
37
100
AcDbDictionary
280
     1
281
     1
  3
ACAD_XREC_ROUNDTRIP
360
4F6
  0
XRECORD
  5
4E6
102
{ACAD_REACTORS
330
4E5
102
}
330
4E5
100
AcDbXrecord
280
     1
102
RTVSPropertyOp0
 70
     1
102
RTVSPropertyOp1
 70
     1
102
RTVSPropertyOp2
 70
     1
102
RTVSPropertyOp3
 70
     1
102
RTVSPropertyOp4
 70
     1
102
RTVSPropertyOp5
 70
     1
102
RTVSPropertyOp6
 70
     1
102
RTVSPropertyOp7
 70
     1
102
RTVSPropertyOp8
 70
     1
102
RTVSPropertyOp9
 70
     1
102
RTVSPropertyOp10
 70
     1
102
RTVSPropertyOp11
 70
     1
102
RTVSPropertyOp12
 70
     1
102
RTVSPropertyOp13
 70
     1
102
RTVSPropertyOp14
 70
     1
102
RTVSPropertyOp15
 70
     1
102
RTVSPropertyOp16
 70
     1
102
RTVSPropertyOp17
 70
     1
102
RTVSPropertyOp18
 70
     1
102
RTVSPropertyOp19
 70
     1
102
RTVSPropertyOp20
 70
     1
102
RTVSPropertyOp21
 70
     1
102
RTVSPropertyOp22
 70
     1
102
RTVSPropertyOp23
 70
     1
102
RTVSPropertyOp24
 70
     1
102
RTVSPropertyOp25
 70
     1
102
RTVSPropertyOp26
 70
     1
102
RTVSPropertyOp27
 70
     1
102
RTVSPropertyOp28
 70
     1
102
RTVSPropertyOp29
 70
     1
102
RTVSPropertyOp30
 70
     1
102
RTVSPropertyOp31
 70
     1
102
RTVSPropertyOp32
 70
     1
  0
XRECORD
  5
4EA
102
{ACAD_REACTORS
330
4E9
102
}
330
4E9
100
AcDbXrecord
280
     1
102
RTVSPropertyOp0
 70
     1
102
RTVSPropertyOp1
 70
     1
102
RTVSPropertyOp2
 70
     1
102
RTVSPropertyOp3
 70
     1
102
RTVSPropertyOp4
 70
     1
102
RTVSPropertyOp5
 70
     1
102
RTVSPropertyOp6
 70
     1
102
RTVSPropertyOp7
 70
     1
102
RTVSPropertyOp8
 70
     1
102
RTVSPropertyOp9
 70
     1
102
RTVSPropertyOp10
 70
     1
102
RTVSPropertyOp11
 70
     1
102
RTVSPropertyOp12
 70
     1
102
RTVSPropertyOp13
 70
     1
102
RTVSPropertyOp14
 70
     1
102
RTVSPropertyOp15
 70
     1
102
RTVSPropertyOp16
 70
     1
102
RTVSPropertyOp17
 70
     1
102
RTVSPropertyOp18
 70
     1
102
RTVSPropertyOp19
 70
     1
102
RTVSPropertyOp20
 70
     1
102
RTVSPropertyOp21
 70
     1
102
RTVSPropertyOp22
 70
     1
102
RTVSPropertyOp23
 70
     1
102
RTVSPropertyOp24
 70
     1
102
RTVSPropertyOp25
 70
     1
102
RTVSPropertyOp26
 70
     1
102
RTVSPropertyOp27
 70
     1
102
RTVSPropertyOp28
 70
     1
102
RTVSPropertyOp29
 70
     1
102
RTVSPropertyOp30
 70
     1
102
RTVSPropertyOp31
 70
     1
102
RTVSPropertyOp32
 70
     1
  0
XRECORD
  5
4E8
102
{ACAD_REACTORS
330
4E7
102
}
330
4E7
100
AcDbXrecord
280
     1
102
RTVSPropertyOp0
 70
     1
102
RTVSPropertyOp1
 70
     1
102
RTVSPropertyOp2
 70
     1
102
RTVSPropertyOp3
 70
     1
102
RTVSPropertyOp4
 70
     1
102
RTVSPropertyOp5
 70
     1
102
RTVSPropertyOp6
 70
     1
102
RTVSPropertyOp7
 70
     1
102
RTVSPropertyOp8
 70
     1
102
RTVSPropertyOp9
 70
     1
102
RTVSPropertyOp10
 70
     1
102
RTVSPropertyOp11
 70
     1
102
RTVSPropertyOp12
 70
     1
102
RTVSPropertyOp13
 70
     1
102
RTVSPropertyOp14
 70
     1
102
RTVSPropertyOp15
 70
     1
102
RTVSPropertyOp16
 70
     1
102
RTVSPropertyOp17
 70
     1
102
RTVSPropertyOp18
 70
     1
102
RTVSPropertyOp19
 70
     1
102
RTVSPropertyOp20
 70
     1
102
RTVSPropertyOp21
 70
     1
102
RTVSPropertyOp22
 70
     1
102
RTVSPropertyOp23
 70
     1
102
RTVSPropertyOp24
 70
     1
102
RTVSPropertyOp25
 70
     1
102
RTVSPropertyOp26
 70
     1
102
RTVSPropertyOp27
 70
     1
102
RTVSPropertyOp28
 70
     1
102
RTVSPropertyOp29
 70
     1
102
RTVSPropertyOp30
 70
     1
102
RTVSPropertyOp31
 70
     1
102
RTVSPropertyOp32
 70
     1
  0
XRECORD
  5
4EC
102
{ACAD_REACTORS
330
4EB
102
}
330
4EB
100
AcDbXrecord
280
     1
102
RTVSPropertyOp0
 70
     1
102
RTVSPropertyOp1
 70
     1
102
RTVSPropertyOp2
 70
     1
102
RTVSPropertyOp3
 70
     1
102
RTVSPropertyOp4
 70
     1
102
RTVSPropertyOp5
 70
     1
102
RTVSPropertyOp6
 70
     1
102
RTVSPropertyOp7
 70
     1
102
RTVSPropertyOp8
 70
     1
102
RTVSPropertyOp9
 70
     1
102
RTVSPropertyOp10
 70
     1
102
RTVSPropertyOp11
 70
     1
102
RTVSPropertyOp12
 70
     1
102
RTVSPropertyOp13
 70
     1
102
RTVSPropertyOp14
 70
     1
102
RTVSPropertyOp15
 70
     1
102
RTVSPropertyOp16
 70
     1
102
RTVSPropertyOp17
 70
     1
102
RTVSPropertyOp18
 70
     1
102
RTVSPropertyOp19
 70
     1
102
RTVSPropertyOp20
 70
     1
102
RTVSPropertyOp21
 70
     1
102
RTVSPropertyOp22
 70
     1
102
RTVSPropertyOp23
 70
     1
102
RTVSPropertyOp24
 70
     1
102
RTVSPropertyOp25
 70
     1
102
RTVSPropertyOp26
 70
     1
102
RTVSPropertyOp27
 70
     1
102
RTVSPropertyOp28
 70
     1
102
RTVSPropertyOp29
 70
     1
102
RTVSPropertyOp30
 70
     1
102
RTVSPropertyOp31
 70
     1
102
RTVSPropertyOp32
 70
     1
  0
XRECORD
  5
4F4
102
{ACAD_REACTORS
330
4F3
102
}
330
4F3
100
AcDbXrecord
280
     1
102
RTVSPropertyOp0
 70
     1
102
RTVSPropertyOp1
 70
     1
102
RTVSPropertyOp2
 70
     1
102
RTVSPropertyOp3
 70
     1
102
RTVSPropertyOp4
 70
     1
102
RTVSPropertyOp5
 70
     1
102
RTVSPropertyOp6
 70
     1
102
RTVSPropertyOp7
 70
     1
102
RTVSPropertyOp8
 70
     1
102
RTVSPropertyOp9
 70
     1
102
RTVSPropertyOp10
 70
     1
102
RTVSPropertyOp11
 70
     1
102
RTVSPropertyOp12
 70
     1
102
RTVSPropertyOp13
 70
     1
102
RTVSPropertyOp14
 70
     1
102
RTVSPropertyOp15
 70
     1
102
RTVSPropertyOp16
 70
     1
102
RTVSPropertyOp17
 70
     1
102
RTVSPropertyOp18
 70
     1
102
RTVSPropertyOp19
 70
     1
102
RTVSPropertyOp20
 70
     1
102
RTVSPropertyOp21
 70
     1
102
RTVSPropertyOp22
 70
     1
102
RTVSPropertyOp23
 70
     1
102
RTVSPropertyOp24
 70
     1
102
RTVSPropertyOp25
 70
     1
102
RTVSPropertyOp26
 70
     1
102
RTVSPropertyOp27
 70
     1
102
RTVSPropertyOp28
 70
     1
102
RTVSPropertyOp29
 70
     1
102
RTVSPropertyOp30
 70
     1
102
RTVSPropertyOp31
 70
     1
102
RTVSPropertyOp32
 70
     1
  0
XRECORD
  5
4FC
102
{ACAD_REACTORS
330
4FB
102
}
330
4FB
100
AcDbXrecord
280
     1
102
RTVSPropertyOp0
 70
     1
102
RTVSPropertyOp1
 70
     1
102
RTVSPropertyOp2
 70
     1
102
RTVSPropertyOp3
 70
     1
102
RTVSPropertyOp4
 70
     1
102
RTVSPropertyOp5
 70
     1
102
RTVSPropertyOp6
 70
     1
102
RTVSPropertyOp7
 70
     1
102
RTVSPropertyOp8
 70
     1
102
RTVSPropertyOp9
 70
     1
102
RTVSPropertyOp10
 70
     1
102
RTVSPropertyOp11
 70
     1
102
RTVSPropertyOp12
 70
     1
102
RTVSPropertyOp13
 70
     1
102
RTVSPropertyOp14
 70
     1
102
RTVSPropertyOp15
 70
     1
102
RTVSPropertyOp16
 70
     1
102
RTVSPropertyOp17
 70
     1
102
RTVSPropertyOp18
 70
     1
102
RTVSPropertyOp19
 70
     1
102
RTVSPropertyOp20
 70
     1
102
RTVSPropertyOp21
 70
     1
102
RTVSPropertyOp22
 70
     1
102
RTVSPropertyOp23
 70
     1
102
RTVSPropertyOp24
 70
     1
102
RTVSPropertyOp25
 70
     1
102
RTVSPropertyOp26
 70
     1
102
RTVSPropertyOp27
 70
     1
102
RTVSPropertyOp28
 70
     1
102
RTVSPropertyOp29
 70
     1
102
RTVSPropertyOp30
 70
     1
102
RTVSPropertyOp31
 70
     1
102
RTVSPropertyOp32
 70
     1
  0
XRECORD
  5
4F0
102
{ACAD_REACTORS
330
4EF
102
}
330
4EF
100
AcDbXrecord
280
     1
102
RTVSPropertyOp0
 70
     1
102
RTVSPropertyOp1
 70
     1
102
RTVSPropertyOp2
 70
     1
102
RTVSPropertyOp3
 70
     1
102
RTVSPropertyOp4
 70
     1
102
RTVSPropertyOp5
 70
     1
102
RTVSPropertyOp6
 70
     1
102
RTVSPropertyOp7
 70
     1
102
RTVSPropertyOp8
 70
     1
102
RTVSPropertyOp9
 70
     1
102
RTVSPropertyOp10
 70
     1
102
RTVSPropertyOp11
 70
     1
102
RTVSPropertyOp12
 70
     1
102
RTVSPropertyOp13
 70
     1
102
RTVSPropertyOp14
 70
     1
102
RTVSPropertyOp15
 70
     1
102
RTVSPropertyOp16
 70
     1
102
RTVSPropertyOp17
 70
     1
102
RTVSPropertyOp18
 70
     1
102
RTVSPropertyOp19
 70
     1
102
RTVSPropertyOp20
 70
     1
102
RTVSPropertyOp21
 70
     1
102
RTVSPropertyOp22
 70
     1
102
RTVSPropertyOp23
 70
     1
102
RTVSPropertyOp24
 70
     1
102
RTVSPropertyOp25
 70
     1
102
RTVSPropertyOp26
 70
     1
102
RTVSPropertyOp27
 70
     1
102
RTVSPropertyOp28
 70
     1
102
RTVSPropertyOp29
 70
     1
102
RTVSPropertyOp30
 70
     1
102
RTVSPropertyOp31
 70
     1
102
RTVSPropertyOp32
 70
     1
  0
XRECORD
  5
4F2
102
{ACAD_REACTORS
330
4F1
102
}
330
4F1
100
AcDbXrecord
280
     1
102
RTVSPropertyOp0
 70
     1
102
RTVSPropertyOp1
 70
     1
102
RTVSPropertyOp2
 70
     1
102
RTVSPropertyOp3
 70
     1
102
RTVSPropertyOp4
 70
     1
102
RTVSPropertyOp5
 70
     1
102
RTVSPropertyOp6
 70
     1
102
RTVSPropertyOp7
 70
     1
102
RTVSPropertyOp8
 70
     1
102
RTVSPropertyOp9
 70
     1
102
RTVSPropertyOp10
 70
     1
102
RTVSPropertyOp11
 70
     1
102
RTVSPropertyOp12
 70
     1
102
RTVSPropertyOp13
 70
     1
102
RTVSPropertyOp14
 70
     1
102
RTVSPropertyOp15
 70
     1
102
RTVSPropertyOp16
 70
     1
102
RTVSPropertyOp17
 70
     1
102
RTVSPropertyOp18
 70
     1
102
RTVSPropertyOp19
 70
     1
102
RTVSPropertyOp20
 70
     1
102
RTVSPropertyOp21
 70
     1
102
RTVSPropertyOp22
 70
     1
102
RTVSPropertyOp23
 70
     1
102
RTVSPropertyOp24
 70
     1
102
RTVSPropertyOp25
 70
     1
102
RTVSPropertyOp26
 70
     1
102
RTVSPropertyOp27
 70
     1
102
RTVSPropertyOp28
 70
     1
102
RTVSPropertyOp29
 70
     1
102
RTVSPropertyOp30
 70
     1
102
RTVSPropertyOp31
 70
     1
102
RTVSPropertyOp32
 70
     1
  0
XRECORD
  5
4FA
102
{ACAD_REACTORS
330
4F9
102
}
330
4F9
100
AcDbXrecord
280
     1
102
RTVSPropertyOp0
 70
     1
102
RTVSPropertyOp1
 70
     1
102
RTVSPropertyOp2
 70
     1
102
RTVSPropertyOp3
 70
     1
102
RTVSPropertyOp4
 70
     1
102
RTVSPropertyOp5
 70
     1
102
RTVSPropertyOp6
 70
     1
102
RTVSPropertyOp7
 70
     1
102
RTVSPropertyOp8
 70
     1
102
RTVSPropertyOp9
 70
     1
102
RTVSPropertyOp10
 70
     1
102
RTVSPropertyOp11
 70
     1
102
RTVSPropertyOp12
 70
     1
102
RTVSPropertyOp13
 70
     1
102
RTVSPropertyOp14
 70
     1
102
RTVSPropertyOp15
 70
     1
102
RTVSPropertyOp16
 70
     1
102
RTVSPropertyOp17
 70
     1
102
RTVSPropertyOp18
 70
     1
102
RTVSPropertyOp19
 70
     1
102
RTVSPropertyOp20
 70
     1
102
RTVSPropertyOp21
 70
     1
102
RTVSPropertyOp22
 70
     1
102
RTVSPropertyOp23
 70
     1
102
RTVSPropertyOp24
 70
     1
102
RTVSPropertyOp25
 70
     1
102
RTVSPropertyOp26
 70
     1
102
RTVSPropertyOp27
 70
     1
102
RTVSPropertyOp28
 70
     1
102
RTVSPropertyOp29
 70
     1
102
RTVSPropertyOp30
 70
     1
102
RTVSPropertyOp31
 70
     1
102
RTVSPropertyOp32
 70
     1
  0
XRECORD
  5
4DE
102
{ACAD_REACTORS
330
4DD
102
}
330
4DD
100
AcDbXrecord
280
     1
102
RTVSPropertyOp0
 70
     1
102
RTVSPropertyOp1
 70
     1
102
RTVSPropertyOp2
 70
     1
102
RTVSPropertyOp3
 70
     1
102
RTVSPropertyOp4
 70
     1
102
RTVSPropertyOp5
 70
     1
102
RTVSPropertyOp6
 70
     1
102
RTVSPropertyOp7
 70
     1
102
RTVSPropertyOp8
 70
     1
102
RTVSPropertyOp9
 70
     1
102
RTVSPropertyOp10
 70
     1
102
RTVSPropertyOp11
 70
     1
102
RTVSPropertyOp12
 70
     1
102
RTVSPropertyOp13
 70
     1
102
RTVSPropertyOp14
 70
     1
102
RTVSPropertyOp15
 70
     1
102
RTVSPropertyOp16
 70
     1
102
RTVSPropertyOp17
 70
     1
102
RTVSPropertyOp18
 70
     1
102
RTVSPropertyOp19
 70
     1
102
RTVSPropertyOp20
 70
     1
102
RTVSPropertyOp21
 70
     1
102
RTVSPropertyOp22
 70
     1
102
RTVSPropertyOp23
 70
     1
102
RTVSPropertyOp24
 70
     1
102
RTVSPropertyOp25
 70
     1
102
RTVSPropertyOp26
 70
     1
102
RTVSPropertyOp27
 70
     1
102
RTVSPropertyOp28
 70
     1
102
RTVSPropertyOp29
 70
     1
102
RTVSPropertyOp30
 70
     1
102
RTVSPropertyOp31
 70
     1
102
RTVSPropertyOp32
 70
     1
  0
XRECORD
  5
4E0
102
{ACAD_REACTORS
330
4DF
102
}
330
4DF
100
AcDbXrecord
280
     1
102
RTVSPropertyOp0
 70
     1
102
RTVSPropertyOp1
 70
     1
102
RTVSPropertyOp2
 70
     1
102
RTVSPropertyOp3
 70
     1
102
RTVSPropertyOp4
 70
     1
102
RTVSPropertyOp5
 70
     1
102
RTVSPropertyOp6
 70
     1
102
RTVSPropertyOp7
 70
     1
102
RTVSPropertyOp8
 70
     1
102
RTVSPropertyOp9
 70
     1
102
RTVSPropertyOp10
 70
     1
102
RTVSPropertyOp11
 70
     1
102
RTVSPropertyOp12
 70
     1
102
RTVSPropertyOp13
 70
     1
102
RTVSPropertyOp14
 70
     1
102
RTVSPropertyOp15
 70
     1
102
RTVSPropertyOp16
 70
     1
102
RTVSPropertyOp17
 70
     1
102
RTVSPropertyOp18
 70
     1
102
RTVSPropertyOp19
 70
     1
102
RTVSPropertyOp20
 70
     1
102
RTVSPropertyOp21
 70
     1
102
RTVSPropertyOp22
 70
     1
102
RTVSPropertyOp23
 70
     1
102
RTVSPropertyOp24
 70
     1
102
RTVSPropertyOp25
 70
     1
102
RTVSPropertyOp26
 70
     1
102
RTVSPropertyOp27
 70
     1
102
RTVSPropertyOp28
 70
     1
102
RTVSPropertyOp29
 70
     1
102
RTVSPropertyOp30
 70
     1
102
RTVSPropertyOp31
 70
     1
102
RTVSPropertyOp32
 70
     1
  0
XRECORD
  5
4E2
102
{ACAD_REACTORS
330
4E1
102
}
330
4E1
100
AcDbXrecord
280
     1
102
RTVSPropertyOp0
 70
     1
102
RTVSPropertyOp1
 70
     1
102
RTVSPropertyOp2
 70
     1
102
RTVSPropertyOp3
 70
     1
102
RTVSPropertyOp4
 70
     1
102
RTVSPropertyOp5
 70
     1
102
RTVSPropertyOp6
 70
     1
102
RTVSPropertyOp7
 70
     1
102
RTVSPropertyOp8
 70
     1
102
RTVSPropertyOp9
 70
     1
102
RTVSPropertyOp10
 70
     1
102
RTVSPropertyOp11
 70
     1
102
RTVSPropertyOp12
 70
     1
102
RTVSPropertyOp13
 70
     1
102
RTVSPropertyOp14
 70
     1
102
RTVSPropertyOp15
 70
     1
102
RTVSPropertyOp16
 70
     1
102
RTVSPropertyOp17
 70
     1
102
RTVSPropertyOp18
 70
     1
102
RTVSPropertyOp19
 70
     1
102
RTVSPropertyOp20
 70
     1
102
RTVSPropertyOp21
 70
     1
102
RTVSPropertyOp22
 70
     1
102
RTVSPropertyOp23
 70
     1
102
RTVSPropertyOp24
 70
     1
102
RTVSPropertyOp25
 70
     1
102
RTVSPropertyOp26
 70
     1
102
RTVSPropertyOp27
 70
     1
102
RTVSPropertyOp28
 70
     1
102
RTVSPropertyOp29
 70
     1
102
RTVSPropertyOp30
 70
     1
102
RTVSPropertyOp31
 70
     1
102
RTVSPropertyOp32
 70
     1
  0
XRECORD
  5
4E4
102
{ACAD_REACTORS
330
4E3
102
}
330
4E3
100
AcDbXrecord
280
     1
102
RTVSPropertyOp0
 70
     1
102
RTVSPropertyOp1
 70
     1
102
RTVSPropertyOp2
 70
     1
102
RTVSPropertyOp3
 70
     1
102
RTVSPropertyOp4
 70
     1
102
RTVSPropertyOp5
 70
     1
102
RTVSPropertyOp6
 70
     1
102
RTVSPropertyOp7
 70
     1
102
RTVSPropertyOp8
 70
     1
102
RTVSPropertyOp9
 70
     1
102
RTVSPropertyOp10
 70
     1
102
RTVSPropertyOp11
 70
     1
102
RTVSPropertyOp12
 70
     1
102
RTVSPropertyOp13
 70
     1
102
RTVSPropertyOp14
 70
     1
102
RTVSPropertyOp15
 70
     1
102
RTVSPropertyOp16
 70
     1
102
RTVSPropertyOp17
 70
     1
102
RTVSPropertyOp18
 70
     1
102
RTVSPropertyOp19
 70
     1
102
RTVSPropertyOp20
 70
     1
102
RTVSPropertyOp21
 70
     1
102
RTVSPropertyOp22
 70
     1
102
RTVSPropertyOp23
 70
     1
102
RTVSPropertyOp24
 70
     1
102
RTVSPropertyOp25
 70
     1
102
RTVSPropertyOp26
 70
     1
102
RTVSPropertyOp27
 70
     1
102
RTVSPropertyOp28
 70
     1
102
RTVSPropertyOp29
 70
     1
102
RTVSPropertyOp30
 70
     1
102
RTVSPropertyOp31
 70
     1
102
RTVSPropertyOp32
 70
     1
  0
XRECORD
  5
4F8
102
{ACAD_REACTORS
330
4F7
102
}
330
4F7
100
AcDbXrecord
280
     1
102
RTVSPropertyOp0
 70
     1
102
RTVSPropertyOp1
 70
     1
102
RTVSPropertyOp2
 70
     1
102
RTVSPropertyOp3
 70
     1
102
RTVSPropertyOp4
 70
     1
102
RTVSPropertyOp5
 70
     1
102
RTVSPropertyOp6
 70
     1
102
RTVSPropertyOp7
 70
     1
102
RTVSPropertyOp8
 70
     1
102
RTVSPropertyOp9
 70
     1
102
RTVSPropertyOp10
 70
     1
102
RTVSPropertyOp11
 70
     1
102
RTVSPropertyOp12
 70
     1
102
RTVSPropertyOp13
 70
     1
102
RTVSPropertyOp14
 70
     1
102
RTVSPropertyOp15
 70
     1
102
RTVSPropertyOp16
 70
     1
102
RTVSPropertyOp17
 70
     1
102
RTVSPropertyOp18
 70
     1
102
RTVSPropertyOp19
 70
     1
102
RTVSPropertyOp20
 70
     1
102
RTVSPropertyOp21
 70
     1
102
RTVSPropertyOp22
 70
     1
102
RTVSPropertyOp23
 70
     1
102
RTVSPropertyOp24
 70
     1
102
RTVSPropertyOp25
 70
     1
102
RTVSPropertyOp26
 70
     1
102
RTVSPropertyOp27
 70
     1
102
RTVSPropertyOp28
 70
     1
102
RTVSPropertyOp29
 70
     1
102
RTVSPropertyOp30
 70
     1
102
RTVSPropertyOp31
 70
     1
102
RTVSPropertyOp32
 70
     1
  0
XRECORD
  5
4EE
102
{ACAD_REACTORS
330
4ED
102
}
330
4ED
100
AcDbXrecord
280
     1
102
RTVSPropertyOp0
 70
     1
102
RTVSPropertyOp1
 70
     1
102
RTVSPropertyOp2
 70
     1
102
RTVSPropertyOp3
 70
     1
102
RTVSPropertyOp4
 70
     1
102
RTVSPropertyOp5
 70
     1
102
RTVSPropertyOp6
 70
     1
102
RTVSPropertyOp7
 70
     1
102
RTVSPropertyOp8
 70
     1
102
RTVSPropertyOp9
 70
     1
102
RTVSPropertyOp10
 70
     1
102
RTVSPropertyOp11
 70
     1
102
RTVSPropertyOp12
 70
     1
102
RTVSPropertyOp13
 70
     1
102
RTVSPropertyOp14
 70
     1
102
RTVSPropertyOp15
 70
     1
102
RTVSPropertyOp16
 70
     1
102
RTVSPropertyOp17
 70
     1
102
RTVSPropertyOp18
 70
     1
102
RTVSPropertyOp19
 70
     1
102
RTVSPropertyOp20
 70
     1
102
RTVSPropertyOp21
 70
     1
102
RTVSPropertyOp22
 70
     1
102
RTVSPropertyOp23
 70
     1
102
RTVSPropertyOp24
 70
     1
102
RTVSPropertyOp25
 70
     1
102
RTVSPropertyOp26
 70
     1
102
RTVSPropertyOp27
 70
     1
102
RTVSPropertyOp28
 70
     1
102
RTVSPropertyOp29
 70
     1
102
RTVSPropertyOp30
 70
     1
102
RTVSPropertyOp31
 70
     1
102
RTVSPropertyOp32
 70
     1
  0
XRECORD
  5
4F6
102
{ACAD_REACTORS
330
4F5
102
}
330
4F5
100
AcDbXrecord
280
     1
102
RTVSPropertyOp0
 70
     1
102
RTVSPropertyOp1
 70
     1
102
RTVSPropertyOp2
 70
     1
102
RTVSPropertyOp3
 70
     1
102
RTVSPropertyOp4
 70
     1
102
RTVSPropertyOp5
 70
     1
102
RTVSPropertyOp6
 70
     1
102
RTVSPropertyOp7
 70
     1
102
RTVSPropertyOp8
 70
     1
102
RTVSPropertyOp9
 70
     1
102
RTVSPropertyOp10
 70
     1
102
RTVSPropertyOp11
 70
     1
102
RTVSPropertyOp12
 70
     1
102
RTVSPropertyOp13
 70
     1
102
RTVSPropertyOp14
 70
     1
102
RTVSPropertyOp15
 70
     1
102
RTVSPropertyOp16
 70
     1
102
RTVSPropertyOp17
 70
     1
102
RTVSPropertyOp18
 70
     1
102
RTVSPropertyOp19
 70
     1
102
RTVSPropertyOp20
 70
     1
102
RTVSPropertyOp21
 70
     1
102
RTVSPropertyOp22
 70
     1
102
RTVSPropertyOp23
 70
     1
102
RTVSPropertyOp24
 70
     1
102
RTVSPropertyOp25
 70
     1
102
RTVSPropertyOp26
 70
     1
102
RTVSPropertyOp27
 70
     1
102
RTVSPropertyOp28
 70
     1
102
RTVSPropertyOp29
 70
     1
102
RTVSPropertyOp30
 70
     1
102
RTVSPropertyOp31
 70
     1
102
RTVSPropertyOp32
 70
     1
  0
ENDSEC
  0
EOF
