  0
SECTION
  2
HEADER
  9
$ACADVER
  1
AC1021
  9
$ACADMAINTVER
 70
    25
  9
$DWGCODEPAGE
  3
ANSI_932
  9
$INSBASE
 10
0.0
 20
0.0
 30
0.0
  9
$EXTMIN
 10
29.43252145257806
 20
45.86003110419907
 30
0.0
  9
$EXTMAX
 10
1136.232521452578
 20
1013.048211508554
 30
0.0
  9
$LIMMIN
 10
0.0
 20
0.0
  9
$LIMMAX
 10
1189.0
 20
841.0
  9
$ORTHOMODE
 70
     0
  9
$REGENMODE
 70
     1
  9
$FILLMODE
 70
     1
  9
$QTEXTMODE
 70
     0
  9
$MIRRTEXT
 70
     1
  9
$LTSCALE
 40
0.25
  9
$ATTMODE
 70
     1
  9
$TEXTSIZE
 40
5.0
  9
$TRACEWID
 40
0.05
  9
$TEXTSTYLE
  7
Standard
  9
$CLAYER
  8
0
  9
$CELTYPE
  6
ByLayer
  9
$CECOLOR
 62
   256
  9
$CELTSCALE
 40
1.0
  9
$DISPSILH
 70
     0
  9
$DIMSCALE
 40
1.0
  9
$DIMASZ
 40
2.0
  9
$DIMEXO
 40
2.0
  9
$DIMDLI
 40
10.0
  9
$DIMRND
 40
0.0
  9
$DIMDLE
 40
0.0
  9
$DIMEXE
 40
1.5
  9
$DIMTP
 40
0.0
  9
$DIMTM
 40
0.0
  9
$DIMTXT
 40
4.0
  9
$DIMCEN
 40
0.09
  9
$DIMTSZ
 40
0.0
  9
$DIMTOL
 70
     0
  9
$DIMLIM
 70
     0
  9
$DIMTIH
 70
     0
  9
$DIMTOH
 70
     0
  9
$DIMSE1
 70
     0
  9
$DIMSE2
 70
     0
  9
$DIMTAD
 70
     3
  9
$DIMZIN
 70
     8
  9
$DIMBLK
  1

  9
$DIMASO
 70
     1
  9
$DIMSHO
 70
     1
  9
$DIMPOST
  1

  9
$DIMAPOST
  1

  9
$DIMALT
 70
     0
  9
$DIMALTD
 70
     2
  9
$DIMALTF
 40
25.4
  9
$DIMLFAC
 40
1.0
  9
$DIMTOFL
 70
     1
  9
$DIMTVP
 40
0.7
  9
$DIMTIX
 70
     0
  9
$DIMSOXD
 70
     0
  9
$DIMSAH
 70
     0
  9
$DIMBLK1
  1

  9
$DIMBLK2
  1

  9
$DIMSTYLE
  2
Standard
  9
$DIMCLRD
 70
     0
  9
$DIMCLRE
 70
     0
  9
$DIMCLRT
 70
     0
  9
$DIMTFAC
 40
0.5
  9
$DIMGAP
 40
0.09
  9
$DIMJUST
 70
     0
  9
$DIMSD1
 70
     0
  9
$DIMSD2
 70
     0
  9
$DIMTOLJ
 70
     1
  9
$DIMTZIN
 70
     8
  9
$DIMALTZ
 70
     0
  9
$DIMALTTZ
 70
     0
  9
$DIMUPT
 70
     1
  9
$DIMDEC
 70
     2
  9
$DIMTDEC
 70
     4
  9
$DIMALTU
 70
     2
  9
$DIMALTTD
 70
     2
  9
$DIMTXSTY
  7
Standard
  9
$DIMAUNIT
 70
     0
  9
$DIMADEC
 70
     0
  9
$DIMALTRND
 40
0.0
  9
$DIMAZIN
 70
     0
  9
$DIMDSEP
 70
    46
  9
$DIMATFIT
 70
     2
  9
$DIMFRAC
 70
     0
  9
$DIMLDRBLK
  1

  9
$DIMLUNIT
 70
     2
  9
$DIMLWD
 70
    -2
  9
$DIMLWE
 70
    -2
  9
$DIMTMOVE
 70
     2
  9
$DIMFXL
 40
1.0
  9
$DIMFXLON
 70
     0
  9
$DIMJOGANG
 40
0.7853981633974483
  9
$DIMTFILL
 70
     0
  9
$DIMTFILLCLR
 70
     0
  9
$DIMARCSYM
 70
     0
  9
$DIMLTYPE
  6

  9
$DIMLTEX1
  6

  9
$DIMLTEX2
  6

  9
$LUNITS
 70
     2
  9
$LUPREC
 70
     4
  9
$SKETCHINC
 40
0.1
  9
$FILLETRAD
 40
0.5
  9
$AUNITS
 70
     0
  9
$AUPREC
 70
     0
  9
$MENU
  1
.
  9
$ELEVATION
 40
0.0
  9
$PELEVATION
 40
0.0
  9
$THICKNESS
 40
0.0
  9
$LIMCHECK
 70
     0
  9
$CHAMFERA
 40
0.5
  9
$CHAMFERB
 40
0.5
  9
$CHAMFERC
 40
1.0
  9
$CHAMFERD
 40
0.0
  9
$SKPOLY
 70
     0
  9
$TDCREATE
 40
2456991.889722222
  9
$TDUCREATE
 40
2456991.514722222
  9
$TDUPDATE
 40
2456991.514728796
  9
$TDUUPDATE
 40
2456991.139728796
  9
$TDINDWG
 40
0.0000000116
  9
$TDUSRTIMER
 40
0.0000000116
  9
$USRTIMER
 70
     1
  9
$ANGBASE
 50
0.0
  9
$ANGDIR
 70
     0
  9
$PDMODE
 70
     0
  9
$PDSIZE
 40
0.0
  9
$PLINEWID
 40
0.0
  9
$SPLFRAME
 70
     0
  9
$SPLINETYPE
 70
     6
  9
$SPLINESEGS
 70
     8
  9
$HANDSEED
  5
508
  9
$SURFTAB1
 70
     6
  9
$SURFTAB2
 70
     6
  9
$SURFTYPE
 70
     6
  9
$SURFU
 70
     6
  9
$SURFV
 70
     6
  9
$UCSBASE
  2

  9
$UCSNAME
  2

  9
$UCSORG
 10
0.0
 20
0.0
 30
0.0
  9
$UCSXDIR
 10
1.0
 20
0.0
 30
0.0
  9
$UCSYDIR
 10
0.0
 20
1.0
 30
0.0
  9
$UCSORTHOREF
  2

  9
$UCSORTHOVIEW
 70
     0
  9
$UCSORGTOP
 10
0.0
 20
0.0
 30
0.0
  9
$UCSORGBOTTOM
 10
0.0
 20
0.0
 30
0.0
  9
$UCSORGLEFT
 10
0.0
 20
0.0
 30
0.0
  9
$UCSORGRIGHT
 10
0.0
 20
0.0
 30
0.0
  9
$UCSORGFRONT
 10
0.0
 20
0.0
 30
0.0
  9
$UCSORGBACK
 10
0.0
 20
0.0
 30
0.0
  9
$PUCSBASE
  2

  9
$PUCSNAME
  2

  9
$PUCSORG
 10
0.0
 20
0.0
 30
0.0
  9
$PUCSXDIR
 10
1.0
 20
0.0
 30
0.0
  9
$PUCSYDIR
 10
0.0
 20
1.0
 30
0.0
  9
$PUCSORTHOREF
  2

  9
$PUCSORTHOVIEW
 70
     0
  9
$PUCSORGTOP
 10
0.0
 20
0.0
 30
0.0
  9
$PUCSORGBOTTOM
 10
0.0
 20
0.0
 30
0.0
  9
$PUCSORGLEFT
 10
0.0
 20
0.0
 30
0.0
  9
$PUCSORGRIGHT
 10
0.0
 20
0.0
 30
0.0
  9
$PUCSORGFRONT
 10
0.0
 20
0.0
 30
0.0
  9
$PUCSORGBACK
 10
0.0
 20
0.0
 30
0.0
  9
$USERI1
 70
     0
  9
$USERI2
 70
     0
  9
$USERI3
 70
     0
  9
$USERI4
 70
     0
  9
$USERI5
 70
     0
  9
$USERR1
 40
0.0
  9
$USERR2
 40
0.0
  9
$USERR3
 40
0.0
  9
$USERR4
 40
0.0
  9
$USERR5
 40
0.0
  9
$WORLDVIEW
 70
     1
  9
$SHADEDGE
 70
     3
  9
$SHADEDIF
 70
    70
  9
$TILEMODE
 70
     1
  9
$MAXACTVP
 70
    64
  9
$PINSBASE
 10
0.0
 20
0.0
 30
0.0
  9
$PLIMCHECK
 70
     0
  9
$PEXTMIN
 10
0.0
 20
0.0
 30
0.0
  9
$PEXTMAX
 10
1189.0
 20
841.0
 30
0.0
  9
$PLIMMIN
 10
0.0
 20
0.0
  9
$PLIMMAX
 10
1189.0
 20
841.0
  9
$UNITMODE
 70
     0
  9
$VISRETAIN
 70
     1
  9
$PLINEGEN
 70
     0
  9
$PSLTSCALE
 70
     1
  9
$TREEDEPTH
 70
  3020
  9
$CMLSTYLE
  2
Standard
  9
$CMLJUST
 70
     0
  9
$CMLSCALE
 40
1.0
  9
$PROXYGRAPHICS
 70
     1
  9
$MEASUREMENT
 70
     1
  9
$CELWEIGHT
370
    -1
  9
$ENDCAPS
280
     0
  9
$JOINSTYLE
280
     0
  9
$LWDISPLAY
290
     0
  9
$INSUNITS
 70
     4
  9
$HYPERLINKBASE
  1

  9
$STYLESHEET
  1

  9
$XEDIT
290
     1
  9
$CEPSNTYPE
380
     0
  9
$PSTYLEMODE
290
     1
  9
$FINGERPRINTGUID
  2
{2D4BFCF7-F033-47B3-A7AC-63DC94DBCF17}
  9
$VERSIONGUID
  2
{FAEB1C32-E019-11D5-929B-00C0DF256EC4}
  9
$EXTNAMES
290
     1
  9
$PSVPSCALE
 40
0.0
  9
$OLESTARTUP
290
     0
  9
$SORTENTS
280
   127
  9
$INDEXCTL
280
     0
  9
$HIDETEXT
280
     1
  9
$XCLIPFRAME
290
     0
  9
$HALOGAP
280
     0
  9
$OBSCOLOR
 70
   257
  9
$OBSLTYPE
280
     0
  9
$INTERSECTIONDISPLAY
280
     0
  9
$INTERSECTIONCOLOR
 70
   257
  9
$DIMASSOC
280
     1
  9
$PROJECTNAME
  1

  9
$CAMERADISPLAY
290
     0
  9
$LENSLENGTH
 40
50.0
  9
$CAMERAHEIGHT
 40
0.0
  9
$STEPSPERSEC
 40
2.0
  9
$STEPSIZE
 40
6.0
  9
$3DDWFPREC
 40
2.0
  9
$PSOLWIDTH
 40
0.25
  9
$PSOLHEIGHT
 40
4.0
  9
$LOFTANG1
 40
1.570796326794897
  9
$LOFTANG2
 40
1.570796326794897
  9
$LOFTMAG1
 40
0.0
  9
$LOFTMAG2
 40
0.0
  9
$LOFTPARAM
 70
     7
  9
$LOFTNORMALS
280
     1
  9
$LATITUDE
 40
37.795
  9
$LONGITUDE
 40
-122.394
  9
$NORTHDIRECTION
 40
0.0
  9
$TIMEZONE
 70
 -8000
  9
$LIGHTGLYPHDISPLAY
280
     1
  9
$TILEMODELIGHTSYNCH
280
     1
  9
$SOLIDHIST
280
     1
  9
$SHOWHIST
280
     1
  9
$DWFFRAME
280
     2
  9
$DGNFRAME
280
     2
  9
$REALWORLDSCALE
290
     1
  9
$INTERFERECOLOR
 62
   256
  9
$CSHADOW
280
     0
  9
$SHADOWPLANELOCATION
 40
0.0
  0
ENDSEC
  0
SECTION
  2
CLASSES
  0
CLASS
  1
ACDBDICTIONARYWDFLT
  2
AcDbDictionaryWithDefault
  3
ObjectDBX Classes
 90
        0
 91
        4
280
     0
281
     0
  0
CLASS
  1
VISUALSTYLE
  2
AcDbVisualStyle
  3
ObjectDBX Classes
 90
     4095
 91
        4
280
     0
281
     0
  0
CLASS
  1
MATERIAL
  2
AcDbMaterial
  3
ObjectDBX Classes
 90
     1153
 91
        4
280
     0
281
     0
  0
ENDSEC
  0
SECTION
  2
TABLES
  0
TABLE
  2
VPORT
  5
8
330
0
100
AcDbSymbolTable
 70
     1
  0
VPORT
  5
29
330
8
100
AcDbSymbolTableRecord
100
AcDbViewportTableRecord
  2
*Active
 70
     0
 10
0.0
 20
0.0
 11
1.0
 21
1.0
 12
10.42990654205607
 22
4.5
 13
0.0
 23
0.0
 14
0.5
 24
0.5
 15
0.5
 25
0.5
 16
0.0
 26
0.0
 36
1.0
 17
0.0
 27
0.0
 37
0.0
 40
9.0
 41
1.972972972850329
 42
50.0
 43
0.0
 44
0.0
 50
0.0
 51
0.0
 71
     0
 72
   100
 73
     1
 74
     3
 75
     0
 76
     0
 77
     0
 78
     0
281
     0
 65
     1
110
0.0
120
0.0
130
0.0
111
1.0
121
0.0
131
0.0
112
0.0
122
1.0
132
0.0
 79
     0
146
0.0
 60
     3
 61
     5
292
     1
282
     1
141
0.0
142
0.0
 63
   250
  0
ENDTAB
  0
TABLE
  2
LTYPE
  5
5
330
0
100
AcDbSymbolTable
 70
     9
  0
LTYPE
  5
14
330
5
100
AcDbSymbolTableRecord
100
AcDbLinetypeTableRecord
  2
ByBlock
 70
     0
  3

 72
    65
 73
     0
 40
0.0
  0
LTYPE
  5
15
330
5
100
AcDbSymbolTableRecord
100
AcDbLinetypeTableRecord
  2
ByLayer
 70
     0
  3

 72
    65
 73
     0
 40
0.0
  0
LTYPE
  5
16
330
5
100
AcDbSymbolTableRecord
100
AcDbLinetypeTableRecord
  2
Continuous
 70
     0
  3
Solid line
 72
    65
 73
     0
 40
0.0
  0
LTYPE
  5
8E
330
5
100
AcDbSymbolTableRecord
100
AcDbLinetypeTableRecord
  2
DOT
 70
     0
  3
DOT
 72
    65
 73
     2
 40
4.0
 49
6.0
 74
     0
 49
-2.0
 74
     0
  0
LTYPE
  5
8F
330
5
100
AcDbSymbolTableRecord
100
AcDbLinetypeTableRecord
  2
HIDDEN
 70
     0
  3
HIDDEN
 72
    65
 73
     2
 40
4.2
 49
8.4
 74
     0
 49
-4.2
 74
     0
  0
LTYPE
  5
90
330
5
100
AcDbSymbolTableRecord
100
AcDbLinetypeTableRecord
  2
DASHDOT
 70
     0
  3
DASHDOT
 72
    65
 73
     4
 40
14.5
 49
30.0
 74
     0
 49
-9.0
 74
     0
 49
2.5
 74
     0
 49
-9.0
 74
     0
  0
LTYPE
  5
91
330
5
100
AcDbSymbolTableRecord
100
AcDbLinetypeTableRecord
  2
PHANTOM
 70
     0
  3
PHANTOM
 72
    65
 73
     6
 40
12.0
 49
30.0
 74
     0
 49
-9.0
 74
     0
 49
2.5
 74
     0
 49
-5.0
 74
     0
 49
2.5
 74
     0
 49
-9.0
 74
     0
  0
LTYPE
  5
92
330
5
100
AcDbSymbolTableRecord
100
AcDbLinetypeTableRecord
  2
ACAD_ISO14W100
 70
     0
  3
ACAD_ISO14W100
 72
    65
 73
     8
 40
1.5
 49
12.0
 74
     0
 49
-3.0
 74
     0
 49
0.5
 74
     0
 49
-3.0
 74
     0
 49
0.5
 74
     0
 49
-3.0
 74
     0
 49
0.5
 74
     0
 49
-3.0
 74
     0
  0
LTYPE
  5
93
330
5
100
AcDbSymbolTableRecord
100
AcDbLinetypeTableRecord
  2
ACAD_ISO06W100
 70
     0
  3
ACAD_ISO06W100
 72
    65
 73
     8
 40
13.5
 49
24.0
 74
     0
 49
-3.0
 74
     0
 49
0.5
 74
     0
 49
-3.0
 74
     0
 49
0.5
 74
     0
 49
-3.0
 74
     0
 49
0.5
 74
     0
 49
-3.0
 74
     0
  0
LTYPE
  5
94
330
5
100
AcDbSymbolTableRecord
100
AcDbLinetypeTableRecord
  2
ACAD_ISO11W100
 70
     0
  3
ACAD_ISO11W100
 72
    65
 73
     6
 40
15.5
 49
12.0
 74
     0
 49
-3.0
 74
     0
 49
12.0
 74
     0
 49
-3.0
 74
     0
 49
0.5
 74
     0
 49
-3.0
 74
     0
  0
LTYPE
  5
95
330
5
100
AcDbSymbolTableRecord
100
AcDbLinetypeTableRecord
  2
ACAD_ISO13W100
 70
     0
  3
ACAD_ISO13W100
 72
    65
 73
     8
 40
13.0
 49
12.0
 74
     0
 49
-3.0
 74
     0
 49
12.0
 74
     0
 49
-3.0
 74
     0
 49
0.5
 74
     0
 49
-3.0
 74
     0
 49
0.5
 74
     0
 49
-3.0
 74
     0
  0
ENDTAB
  0
TABLE
  2
LAYER
  5
2
330
0
100
AcDbSymbolTable
 70
    22
  0
LAYER
  5
10
330
2
100
AcDbSymbolTableRecord
100
AcDbLayerTableRecord
  2
0
 70
     0
 62
     7
  6
Continuous
370
    -3
390
F
347
3E
  0
LAYER
  5
96
330
2
100
AcDbSymbolTableRecord
100
AcDbLayerTableRecord
  2
1
 70
     0
 62
     7
  6
Continuous
370
     9
390
F
347
3E
  0
LAYER
  5
97
330
2
100
AcDbSymbolTableRecord
100
AcDbLayerTableRecord
  2
2
 70
     0
 62
   134
  6
Continuous
370
     9
390
F
347
3E
  0
LAYER
  5
98
330
2
100
AcDbSymbolTableRecord
100
AcDbLayerTableRecord
  2
3
 70
     0
 62
   214
  6
Continuous
370
     9
390
F
347
3E
  0
LAYER
  5
99
330
2
100
AcDbSymbolTableRecord
100
AcDbLayerTableRecord
  2
4
 70
     0
 62
    54
  6
Continuous
370
     9
390
F
347
3E
  0
LAYER
  5
9A
330
2
100
AcDbSymbolTableRecord
100
AcDbLayerTableRecord
  2
5
 70
     0
 62
    94
  6
Continuous
370
     9
390
F
347
3E
  0
LAYER
  5
9B
330
2
100
AcDbSymbolTableRecord
100
AcDbLayerTableRecord
  2
6
 70
     0
 62
    14
  6
Continuous
370
     9
390
F
347
3E
  0
LAYER
  5
9C
330
2
100
AcDbSymbolTableRecord
100
AcDbLayerTableRecord
  2
7
 70
     0
 62
     4
  6
Continuous
370
     9
390
F
347
3E
  0
LAYER
  5
9D
330
2
100
AcDbSymbolTableRecord
100
AcDbLayerTableRecord
  2
8
 70
     0
 62
     6
  6
Continuous
370
     9
390
F
347
3E
  0
LAYER
  5
9E
330
2
100
AcDbSymbolTableRecord
100
AcDbLayerTableRecord
  2
9
 70
     0
 62
     2
  6
Continuous
370
     9
390
F
347
3E
  0
LAYER
  5
9F
330
2
100
AcDbSymbolTableRecord
100
AcDbLayerTableRecord
  2
10
 70
     0
 62
     3
  6
Continuous
370
     9
390
F
347
3E
  0
LAYER
  5
A0
330
2
100
AcDbSymbolTableRecord
100
AcDbLayerTableRecord
  2
11
 70
     0
 62
   251
  6
Continuous
370
     9
390
F
347
3E
  0
LAYER
  5
A1
330
2
100
AcDbSymbolTableRecord
100
AcDbLayerTableRecord
  2
12
 70
     0
 62
   136
  6
Continuous
370
     9
390
F
347
3E
  0
LAYER
  5
A2
330
2
100
AcDbSymbolTableRecord
100
AcDbLayerTableRecord
  2
13
 70
     0
 62
   216
  6
Continuous
370
     9
390
F
347
3E
  0
LAYER
  5
A3
330
2
100
AcDbSymbolTableRecord
100
AcDbLayerTableRecord
  2
14
 70
     0
 62
    56
  6
Continuous
370
     9
390
F
347
3E
  0
LAYER
  5
A4
330
2
100
AcDbSymbolTableRecord
100
AcDbLayerTableRecord
  2
15
 70
     0
 62
    96
  6
Continuous
370
     9
390
F
347
3E
  0
LAYER
  5
A5
330
2
100
AcDbSymbolTableRecord
100
AcDbLayerTableRecord
  2
16
 70
     0
 62
    16
  6
Continuous
370
     9
390
F
347
3E
  0
LAYER
  5
A6
330
2
100
AcDbSymbolTableRecord
100
AcDbLayerTableRecord
  2
17
 70
     0
 62
   132
  6
Continuous
370
     9
390
F
347
3E
  0
LAYER
  5
A7
330
2
100
AcDbSymbolTableRecord
100
AcDbLayerTableRecord
  2
18
 70
     0
 62
   212
  6
Continuous
370
     9
390
F
347
3E
  0
LAYER
  5
A8
330
2
100
AcDbSymbolTableRecord
100
AcDbLayerTableRecord
  2
19
 70
     0
 62
    52
  6
Continuous
370
     9
390
F
347
3E
  0
LAYER
  5
A9
330
2
100
AcDbSymbolTableRecord
100
AcDbLayerTableRecord
  2
20
 70
     0
 62
   250
  6
Continuous
370
     9
390
F
347
3E
  0
LAYER
  5
AA
330
2
100
AcDbSymbolTableRecord
100
AcDbLayerTableRecord
  2
128
 70
     0
 62
     7
  6
Continuous
370
     9
390
F
347
3E
  0
ENDTAB
  0
TABLE
  2
STYLE
  5
3
330
0
100
AcDbSymbolTable
 70
     2
  0
STYLE
  5
11
330
3
100
AcDbSymbolTableRecord
100
AcDbTextStyleTableRecord
  2
Standard
 70
     0
 40
0.0
 41
1.0
 50
0.0
 71
     0
 42
5.0
  3
txt
  4
bigfont
  0
STYLE
  5
41
330
3
100
AcDbSymbolTableRecord
100
AcDbTextStyleTableRecord
  2
T_STANDARD
 70
     4
 40
10.0
 41
1.0
 50
0.0
 71
     0
 42
10.0
  3
txt
  4
bigfont
  0
ENDTAB
  0
TABLE
  2
VIEW
  5
6
330
0
100
AcDbSymbolTable
 70
     0
  0
ENDTAB
  0
TABLE
  2
UCS
  5
7
330
0
100
AcDbSymbolTable
 70
     0
  0
ENDTAB
  0
TABLE
  2
APPID
  5
9
330
0
100
AcDbSymbolTable
 70
     2
  0
APPID
  5
12
330
9
100
AcDbSymbolTableRecord
100
AcDbRegAppTableRecord
  2
ACAD
 70
     0
  0
APPID
  5
40
330
9
100
AcDbSymbolTableRecord
100
AcDbRegAppTableRecord
  2
ODA
 70
     0
  0
ENDTAB
  0
TABLE
  2
DIMSTYLE
  5
A
330
0
100
AcDbSymbolTable
 70
     1
100
AcDbDimStyleTable
  0
DIMSTYLE
105
27
330
A
100
AcDbSymbolTableRecord
100
AcDbDimStyleTableRecord
  2
Standard
 70
     0
178
     0
340
11
  0
ENDTAB
  0
TABLE
  2
BLOCK_RECORD
  5
1
330
0
100
AcDbSymbolTable
 70
    16
  0
BLOCK_RECORD
  5
1F
330
1
100
AcDbSymbolTableRecord
100
AcDbBlockTableRecord
  2
*Model_Space
340
22
 70
     0
280
     1
281
     0
  0
BLOCK_RECORD
  5
1B
330
1
100
AcDbSymbolTableRecord
100
AcDbBlockTableRecord
  2
*Paper_Space
340
1E
 70
     0
280
     1
281
     0
  0
BLOCK_RECORD
  5
23
330
1
100
AcDbSymbolTableRecord
100
AcDbBlockTableRecord
  2
*Paper_Space0
340
26
 70
     0
280
     1
281
     0
  0
BLOCK_RECORD
  5
42
330
1
100
AcDbSymbolTableRecord
100
AcDbBlockTableRecord
  2
_ORIGIN
340
0
 70
     0
280
     1
281
     0
  0
BLOCK_RECORD
  5
47
330
1
100
AcDbSymbolTableRecord
100
AcDbBlockTableRecord
  2
_DOTBLANK
340
0
 70
     0
280
     1
281
     0
  0
BLOCK_RECORD
  5
4C
330
1
100
AcDbSymbolTableRecord
100
AcDbBlockTableRecord
  2
_DOT
340
0
 70
     0
280
     1
281
     0
  0
BLOCK_RECORD
  5
51
330
1
100
AcDbSymbolTableRecord
100
AcDbBlockTableRecord
  2
_OPEN
340
0
 70
     0
280
     1
281
     0
  0
BLOCK_RECORD
  5
57
330
1
100
AcDbSymbolTableRecord
100
AcDbBlockTableRecord
  2
_CLOSED
340
0
 70
     0
280
     1
281
     0
  0
BLOCK_RECORD
  5
5E
330
1
100
AcDbSymbolTableRecord
100
AcDbBlockTableRecord
  2
_CLOSEDBLANK
340
0
 70
     0
280
     1
281
     0
  0
BLOCK_RECORD
  5
64
330
1
100
AcDbSymbolTableRecord
100
AcDbBlockTableRecord
  2
_ARROWFILLED
340
0
 70
     0
280
     1
281
     0
  0
BLOCK_RECORD
  5
68
330
1
100
AcDbSymbolTableRecord
100
AcDbBlockTableRecord
  2
_BOXBLANK
340
0
 70
     0
280
     1
281
     0
  0
BLOCK_RECORD
  5
70
330
1
100
AcDbSymbolTableRecord
100
AcDbBlockTableRecord
  2
_BOXFILLED
340
0
 70
     0
280
     1
281
     0
  0
BLOCK_RECORD
  5
75
330
1
100
AcDbSymbolTableRecord
100
AcDbBlockTableRecord
  2
_INTEGRAL
340
0
 70
     0
280
     1
281
     0
  0
BLOCK_RECORD
  5
7A
330
1
100
AcDbSymbolTableRecord
100
AcDbBlockTableRecord
  2
_OBLIQUE
340
0
 70
     0
280
     1
281
     0
  0
BLOCK_RECORD
  5
7E
330
1
100
AcDbSymbolTableRecord
100
AcDbBlockTableRecord
  2
_NONE
340
0
 70
     0
280
     1
281
     0
  0
BLOCK_RECORD
  5
81
330
1
100
AcDbSymbolTableRecord
100
AcDbBlockTableRecord
  2
MARK_OPEN
340
0
 70
     0
280
     1
281
     0
  0
BLOCK_RECORD
  5
86
330
1
100
AcDbSymbolTableRecord
100
AcDbBlockTableRecord
  2
MARK_ORIGIN
340
0
 70
     0
280
     1
281
     0
  0
BLOCK_RECORD
  5
8A
330
1
100
AcDbSymbolTableRecord
100
AcDbBlockTableRecord
  2
MARK_DOT
340
0
 70
     0
280
     1
281
     0
  0
ENDTAB
  0
ENDSEC
  0
SECTION
  2
BLOCKS
  0
BLOCK
  5
20
330
1F
100
AcDbEntity
  8
0
100
AcDbBlockBegin
  2
*Model_Space
 70
     0
 10
0.0
 20
0.0
 30
0.0
  3
*Model_Space
  1

  0
ENDBLK
  5
21
330
1F
100
AcDbEntity
  8
0
100
AcDbBlockEnd
  0
BLOCK
  5
1C
330
1B
100
AcDbEntity
 67
     1
  8
0
100
AcDbBlockBegin
  2
*Paper_Space
 70
     0
 10
0.0
 20
0.0
 30
0.0
  3
*Paper_Space
  1

  0
ENDBLK
  5
1D
330
1B
100
AcDbEntity
 67
     1
  8
0
100
AcDbBlockEnd
  0
BLOCK
  5
24
330
23
100
AcDbEntity
  8
0
100
AcDbBlockBegin
  2
*Paper_Space0
 70
     0
 10
0.0
 20
0.0
 30
0.0
  3
*Paper_Space0
  1

  0
ENDBLK
  5
25
330
23
100
AcDbEntity
  8
0
100
AcDbBlockEnd
  0
BLOCK
  5
45
330
42
100
AcDbEntity
  8
0
100
AcDbBlockBegin
  2
_ORIGIN
 70
     0
 10
0.0
 20
0.0
 30
0.0
  3
_ORIGIN
  1

  0
CIRCLE
  5
43
330
42
100
AcDbEntity
  8
0
100
AcDbCircle
 10
0.0
 20
0.0
 30
0.0
 40
0.5
  0
LINE
  5
44
330
42
100
AcDbEntity
  8
0
100
AcDbLine
 10
0.0
 20
0.0
 30
0.0
 11
-1.0
 21
0.0
 31
0.0
  0
ENDBLK
  5
46
330
42
100
AcDbEntity
  8
0
100
AcDbBlockEnd
  0
BLOCK
  5
4A
330
47
100
AcDbEntity
  8
0
100
AcDbBlockBegin
  2
_DOTBLANK
 70
     0
 10
0.0
 20
0.0
 30
0.0
  3
_DOTBLANK
  1

  0
CIRCLE
  5
48
330
47
100
AcDbEntity
  8
0
100
AcDbCircle
 10
0.0
 20
0.0
 30
0.0
 40
0.5
  0
LINE
  5
49
330
47
100
AcDbEntity
  8
0
100
AcDbLine
 10
-0.5
 20
0.0
 30
0.0
 11
-1.0
 21
0.0
 31
0.0
  0
ENDBLK
  5
4B
330
47
100
AcDbEntity
  8
0
100
AcDbBlockEnd
  0
BLOCK
  5
4F
330
4C
100
AcDbEntity
  8
0
100
AcDbBlockBegin
  2
_DOT
 70
     0
 10
0.0
 20
0.0
 30
0.0
  3
_DOT
  1

  0
LWPOLYLINE
  5
4D
330
4C
100
AcDbEntity
  8
0
100
AcDbPolyline
 90
        2
 70
     1
 43
0.5
 10
-0.25
 20
0.0
 42
1.0
 10
0.25
 20
0.0
 42
1.0
  0
LINE
  5
4E
330
4C
100
AcDbEntity
  8
0
100
AcDbLine
 10
-0.5
 20
0.0
 30
0.0
 11
-1.0
 21
0.0
 31
0.0
  0
ENDBLK
  5
50
330
4C
100
AcDbEntity
  8
0
100
AcDbBlockEnd
  0
BLOCK
  5
55
330
51
100
AcDbEntity
  8
0
100
AcDbBlockBegin
  2
_OPEN
 70
     0
 10
0.0
 20
0.0
 30
0.0
  3
_OPEN
  1

  0
LINE
  5
52
330
51
100
AcDbEntity
  8
0
100
AcDbLine
 10
0.0
 20
0.0
 30
0.0
 11
-1.0
 21
0.1666666666666667
 31
0.0
  0
LINE
  5
53
330
51
100
AcDbEntity
  8
0
100
AcDbLine
 10
0.0
 20
0.0
 30
0.0
 11
-1.0
 21
-0.1666666666666667
 31
0.0
  0
LINE
  5
54
330
51
100
AcDbEntity
  8
0
100
AcDbLine
 10
0.0
 20
0.0
 30
0.0
 11
-1.0
 21
0.0
 31
0.0
  0
ENDBLK
  5
56
330
51
100
AcDbEntity
  8
0
100
AcDbBlockEnd
  0
BLOCK
  5
5C
330
57
100
AcDbEntity
  8
0
100
AcDbBlockBegin
  2
_CLOSED
 70
     0
 10
0.0
 20
0.0
 30
0.0
  3
_CLOSED
  1

  0
LINE
  5
58
330
57
100
AcDbEntity
  8
0
100
AcDbLine
 10
0.0
 20
0.0
 30
0.0
 11
-1.0
 21
0.1666666666666667
 31
0.0
  0
LINE
  5
59
330
57
100
AcDbEntity
  8
0
100
AcDbLine
 10
0.0
 20
0.0
 30
0.0
 11
-1.0
 21
-0.1666666666666667
 31
0.0
  0
LINE
  5
5A
330
57
100
AcDbEntity
  8
0
100
AcDbLine
 10
-1.0
 20
0.1666666666666667
 30
0.0
 11
-1.0
 21
-0.1666666666666667
 31
0.0
  0
LINE
  5
5B
330
57
100
AcDbEntity
  8
0
100
AcDbLine
 10
0.0
 20
0.0
 30
0.0
 11
-1.0
 21
0.0
 31
0.0
  0
ENDBLK
  5
5D
330
57
100
AcDbEntity
  8
0
100
AcDbBlockEnd
  0
BLOCK
  5
62
330
5E
100
AcDbEntity
  8
0
100
AcDbBlockBegin
  2
_CLOSEDBLANK
 70
     0
 10
0.0
 20
0.0
 30
0.0
  3
_CLOSEDBLANK
  1

  0
LINE
  5
5F
330
5E
100
AcDbEntity
  8
0
100
AcDbLine
 10
0.0
 20
0.0
 30
0.0
 11
-1.0
 21
0.1666666666666667
 31
0.0
  0
LINE
  5
60
330
5E
100
AcDbEntity
  8
0
100
AcDbLine
 10
0.0
 20
0.0
 30
0.0
 11
-1.0
 21
-0.1666666666666667
 31
0.0
  0
LINE
  5
61
330
5E
100
AcDbEntity
  8
0
100
AcDbLine
 10
-1.0
 20
0.1666666666666667
 30
0.0
 11
-1.0
 21
-0.1666666666666667
 31
0.0
  0
ENDBLK
  5
63
330
5E
100
AcDbEntity
  8
0
100
AcDbBlockEnd
  0
BLOCK
  5
66
330
64
100
AcDbEntity
  8
0
100
AcDbBlockBegin
  2
_ARROWFILLED
 70
     0
 10
0.0
 20
0.0
 30
0.0
  3
_ARROWFILLED
  1

  0
SOLID
  5
65
330
64
100
AcDbEntity
  8
0
100
AcDbTrace
 10
0.0
 20
0.0
 30
0.0
 11
-1.0
 21
-0.1666666666666667
 31
0.0
 12
-1.0
 22
0.1666666666666667
 32
0.0
 13
0.0
 23
0.0
 33
0.0
  0
ENDBLK
  5
67
330
64
100
AcDbEntity
  8
0
100
AcDbBlockEnd
  0
BLOCK
  5
6E
330
68
100
AcDbEntity
  8
0
100
AcDbBlockBegin
  2
_BOXBLANK
 70
     0
 10
0.0
 20
0.0
 30
0.0
  3
_BOXBLANK
  1

  0
LINE
  5
69
330
68
100
AcDbEntity
  8
0
100
AcDbLine
 10
-0.5
 20
-0.5
 30
0.0
 11
0.5
 21
-0.5
 31
0.0
  0
LINE
  5
6A
330
68
100
AcDbEntity
  8
0
100
AcDbLine
 10
0.5
 20
-0.5
 30
0.0
 11
0.5
 21
0.5
 31
0.0
  0
LINE
  5
6B
330
68
100
AcDbEntity
  8
0
100
AcDbLine
 10
0.5
 20
0.5
 30
0.0
 11
-0.5
 21
0.5
 31
0.0
  0
LINE
  5
6C
330
68
100
AcDbEntity
  8
0
100
AcDbLine
 10
-0.5
 20
0.5
 30
0.0
 11
-0.5
 21
-0.5
 31
0.0
  0
LINE
  5
6D
330
68
100
AcDbEntity
  8
0
100
AcDbLine
 10
-0.5
 20
0.0
 30
0.0
 11
-1.0
 21
0.0
 31
0.0
  0
ENDBLK
  5
6F
330
68
100
AcDbEntity
  8
0
100
AcDbBlockEnd
  0
BLOCK
  5
73
330
70
100
AcDbEntity
  8
0
100
AcDbBlockBegin
  2
_BOXFILLED
 70
     0
 10
0.0
 20
0.0
 30
0.0
  3
_BOXFILLED
  1

  0
SOLID
  5
71
330
70
100
AcDbEntity
  8
0
100
AcDbTrace
 10
-0.5
 20
0.5
 30
0.0
 11
0.5
 21
0.5
 31
0.0
 12
-0.5
 22
-0.5
 32
0.0
 13
0.5
 23
-0.5
 33
0.0
  0
LINE
  5
72
330
70
100
AcDbEntity
  8
0
100
AcDbLine
 10
-0.5
 20
0.0
 30
0.0
 11
-1.0
 21
0.0
 31
0.0
  0
ENDBLK
  5
74
330
70
100
AcDbEntity
  8
0
100
AcDbBlockEnd
  0
BLOCK
  5
78
330
75
100
AcDbEntity
  8
0
100
AcDbBlockBegin
  2
_INTEGRAL
 70
     0
 10
0.0
 20
0.0
 30
0.0
  3
_INTEGRAL
  1

  0
ARC
  5
76
330
75
100
AcDbEntity
  8
0
100
AcDbCircle
 10
0.444888
 20
-0.0913346
 30
0.0
 40
0.4541666
100
AcDbArc
 50
101.9999999999999
 51
167.9999999999998
  0
ARC
  5
77
330
75
100
AcDbEntity
  8
0
100
AcDbCircle
 10
-0.444888
 20
0.0913346
 30
0.0
 40
0.4541666
100
AcDbArc
 50
281.9999999999997
 51
347.9999999999997
  0
ENDBLK
  5
79
330
75
100
AcDbEntity
  8
0
100
AcDbBlockEnd
  0
BLOCK
  5
7C
330
7A
100
AcDbEntity
  8
0
100
AcDbBlockBegin
  2
_OBLIQUE
 70
     0
 10
0.0
 20
0.0
 30
0.0
  3
_OBLIQUE
  1

  0
LINE
  5
7B
330
7A
100
AcDbEntity
  8
0
100
AcDbLine
 10
-0.5
 20
-0.5
 30
0.0
 11
0.5
 21
0.5
 31
0.0
  0
ENDBLK
  5
7D
330
7A
100
AcDbEntity
  8
0
100
AcDbBlockEnd
  0
BLOCK
  5
7F
330
7E
100
AcDbEntity
  8
0
100
AcDbBlockBegin
  2
_NONE
 70
     0
 10
0.0
 20
0.0
 30
0.0
  3
_NONE
  1

  0
ENDBLK
  5
80
330
7E
100
AcDbEntity
  8
0
100
AcDbBlockEnd
  0
BLOCK
  5
84
330
81
100
AcDbEntity
  8
0
100
AcDbBlockBegin
  2
MARK_OPEN
 70
     0
 10
0.0
 20
0.0
 30
0.0
  3
MARK_OPEN
  1

  0
LINE
  5
82
330
81
100
AcDbEntity
  8
0
100
AcDbLine
 10
0.0
 20
0.0
 30
0.0
 11
-1.0
 21
0.1666666666666667
 31
0.0
  0
LINE
  5
83
330
81
100
AcDbEntity
  8
0
100
AcDbLine
 10
0.0
 20
0.0
 30
0.0
 11
-1.0
 21
-0.1666666666666667
 31
0.0
  0
ENDBLK
  5
85
330
81
100
AcDbEntity
  8
0
100
AcDbBlockEnd
  0
BLOCK
  5
88
330
86
100
AcDbEntity
  8
0
100
AcDbBlockBegin
  2
MARK_ORIGIN
 70
     0
 10
0.0
 20
0.0
 30
0.0
  3
MARK_ORIGIN
  1

  0
CIRCLE
  5
87
330
86
100
AcDbEntity
  8
0
100
AcDbCircle
 10
0.0
 20
0.0
 30
0.0
 40
0.5
  0
ENDBLK
  5
89
330
86
100
AcDbEntity
  8
0
100
AcDbBlockEnd
  0
BLOCK
  5
8C
330
8A
100
AcDbEntity
  8
0
100
AcDbBlockBegin
  2
MARK_DOT
 70
     0
 10
0.0
 20
0.0
 30
0.0
  3
MARK_DOT
  1

  0
LWPOLYLINE
  5
8B
330
8A
100
AcDbEntity
  8
0
100
AcDbPolyline
 90
        2
 70
     1
 43
0.5
 10
-0.25
 20
0.0
 42
1.0
 10
0.25
 20
0.0
 42
1.0
  0
ENDBLK
  5
8D
330
8A
100
AcDbEntity
  8
0
100
AcDbBlockEnd
  0
ENDSEC
  0
SECTION
  2
ENTITIES
  0
LINE
  5
AB
330
1F
100
AcDbEntity
  8
1
  6
Continuous
 62
     7
370
     9
100
AcDbLine
 10
61.55379295588715
 20
79.86003110419907
 30
0.0
 11
57.20172417976121
 21
79.86003110419907
 31
0.0
  0
LINE
  5
AC
330
1F
100
AcDbEntity
  8
1
  6
Continuous
 62
     7
370
     9
100
AcDbLine
 10
79.9696734059098
 20
78.36003110419907
 30
0.0
 11
79.68099855208312
 21
78.86003110419905
 31
0.0
  0
LINE
  5
AD
330
1F
100
AcDbEntity
  8
1
  6
Continuous
 62
     7
370
     9
100
AcDbLine
 10
79.9696734059098
 20
92.86003110419907
 30
0.0
 11
82.16967340590979
 21
92.86003110419907
 31
0.0
  0
LINE
  5
AE
330
1F
100
AcDbEntity
  8
1
  6
Continuous
 62
     7
370
     9
100
AcDbLine
 10
79.68099851836566
 20
92.36003110419907
 30
0.0
 11
79.68099851836566
 21
78.86003110419907
 31
0.0
  0
LINE
  5
AF
330
1F
100
AcDbEntity
  8
1
  6
Continuous
 62
     7
370
     9
100
AcDbLine
 10
51.96967337219232
 20
78.36003110419907
 30
0.0
 11
52.25834822601901
 21
78.86003110419908
 31
0.0
  0
LINE
  5
B0
330
1F
100
AcDbEntity
  8
1
  6
Continuous
 62
     7
370
     9
100
AcDbLine
 10
55.46967337219233
 20
78.86003110419907
 30
0.0
 11
52.25834822601901
 21
78.86003110419907
 31
0.0
  0
LINE
  5
B1
330
1F
100
AcDbEntity
  8
1
  6
Continuous
 62
     7
370
     9
100
AcDbLine
 10
74.73762259834093
 20
79.86003110419912
 30
0.0
 11
76.4696734059098
 21
78.86003110419912
 31
0.0
  0
LINE
  5
B2
330
1F
100
AcDbEntity
  8
1
  6
Continuous
 62
     7
370
     9
100
AcDbLine
 10
74.73762259834093
 20
91.36003110419907
 30
0.0
 11
76.4696734059098
 21
92.36003110419907
 31
0.0
  0
LINE
  5
B3
330
1F
100
AcDbEntity
  8
1
  6
Continuous
 62
     7
370
     9
100
AcDbLine
 10
76.4696734059098
 20
92.36003110419907
 30
0.0
 11
79.68099855208312
 21
92.36003110419907
 31
0.0
  0
LINE
  5
B4
330
1F
100
AcDbEntity
  8
1
  6
Continuous
 62
     7
370
     9
100
AcDbLine
 10
79.96967340590977
 20
92.86003110419907
 30
0.0
 11
79.6809985520831
 21
92.36003110419904
 31
0.0
  0
LINE
  5
B5
330
1F
100
AcDbEntity
  8
1
  6
Continuous
 62
     7
370
     9
100
AcDbLine
 10
82.9696734059098
 20
92.06003110419907
 30
0.0
 11
82.9696734059098
 21
79.16003110419906
 31
0.0
  0
LINE
  5
B6
330
1F
100
AcDbEntity
  8
1
  6
Continuous
 62
     7
370
     9
100
AcDbLine
 10
70.38555382221499
 20
79.86003110419907
 30
0.0
 11
74.7376225983409
 21
79.86003110419907
 31
0.0
  0
LINE
  5
B7
330
1F
100
AcDbEntity
  8
1
  6
Continuous
 62
     7
370
     9
100
AcDbLine
 10
51.96967337219233
 20
92.86003110419907
 30
0.0
 11
49.76967337219233
 21
92.86003110419907
 31
0.0
  0
LINE
  5
B8
330
1F
100
AcDbEntity
  8
1
  6
Continuous
 62
     7
370
     9
100
AcDbLine
 10
51.96967340590979
 20
92.86003110419907
 30
0.0
 11
51.96967340590979
 21
78.36003110419907
 31
0.0
  0
LINE
  5
B9
330
1F
100
AcDbEntity
  8
1
  6
Continuous
 62
     7
370
     9
100
AcDbLine
 10
52.25834825973648
 20
92.36003110419907
 30
0.0
 11
52.25834825973648
 21
78.86003110419907
 31
0.0
  0
LINE
  5
BA
330
1F
100
AcDbEntity
  8
1
  6
Continuous
 62
     7
370
     9
100
AcDbLine
 10
79.9696734059098
 20
78.36003110419907
 30
0.0
 11
82.16967340590979
 21
78.36003110419907
 31
0.0
  0
LINE
  5
BB
330
1F
100
AcDbEntity
  8
1
  6
Continuous
 62
     7
370
     9
100
AcDbLine
 10
76.4696734059098
 20
78.86003110419907
 30
0.0
 11
79.68099855208312
 21
78.86003110419907
 31
0.0
  0
LINE
  5
BC
330
1F
100
AcDbEntity
  8
1
  6
Continuous
 62
     7
370
     9
100
AcDbLine
 10
57.20172417976119
 20
79.86003110419912
 30
0.0
 11
55.4696733721923
 21
78.86003110419912
 31
0.0
  0
LINE
  5
BD
330
1F
100
AcDbEntity
  8
1
  6
Continuous
 62
     7
370
     9
100
AcDbLine
 10
55.46967337219233
 20
92.36003110419907
 30
0.0
 11
52.25834822601901
 21
92.36003110419907
 31
0.0
  0
LINE
  5
BE
330
1F
100
AcDbEntity
  8
1
  6
Continuous
 62
     7
370
     9
100
AcDbLine
 10
51.96967337219233
 20
78.36003110419907
 30
0.0
 11
49.76967337219233
 21
78.36003110419907
 31
0.0
  0
LINE
  5
BF
330
1F
100
AcDbEntity
  8
1
  6
Continuous
 62
     7
370
     9
100
AcDbLine
 10
79.96967337219236
 20
92.86003110419907
 30
0.0
 11
79.96967337219236
 21
78.36003110419907
 31
0.0
  0
LINE
  5
C0
330
1F
100
AcDbEntity
  8
1
  6
Continuous
 62
     7
370
     9
100
AcDbLine
 10
57.2017241797612
 20
91.36003110419904
 30
0.0
 11
55.46967337219232
 21
92.36003110419904
 31
0.0
  0
LINE
  5
C1
330
1F
100
AcDbEntity
  8
1
  6
Continuous
 62
     7
370
     9
100
AcDbLine
 10
61.55379295588712
 20
91.36003110419905
 30
0.0
 11
57.20172417976121
 21
91.36003110419905
 31
0.0
  0
LINE
  5
C2
330
1F
100
AcDbEntity
  8
1
  6
Continuous
 62
     7
370
     9
100
AcDbLine
 10
48.96967337219233
 20
92.06003110419907
 30
0.0
 11
48.96967337219233
 21
79.16003110419906
 31
0.0
  0
LINE
  5
C3
330
1F
100
AcDbEntity
  8
1
  6
Continuous
 62
     7
370
     9
100
AcDbLine
 10
70.38555382221502
 20
91.36003110419905
 30
0.0
 11
74.7376225983409
 21
91.36003110419905
 31
0.0
  0
LINE
  5
C4
330
1F
100
AcDbEntity
  8
1
  6
Continuous
 62
     7
370
     9
100
AcDbLine
 10
76.4696734059098
 20
92.36003110419907
 30
0.0
 11
76.4696734059098
 21
78.86003110419907
 31
0.0
  0
LINE
  5
C5
330
1F
100
AcDbEntity
  8
1
  6
Continuous
 62
     7
370
     9
100
AcDbLine
 10
74.73762259834093
 20
91.36003110419905
 30
0.0
 11
74.73762259834093
 21
79.86003110419908
 31
0.0
  0
LINE
  5
C6
330
1F
100
AcDbEntity
  8
1
  6
Continuous
 62
     7
370
     9
100
AcDbLine
 10
57.2017241797612
 20
91.36003110419905
 30
0.0
 11
57.2017241797612
 21
79.86003110419908
 31
0.0
  0
LINE
  5
C7
330
1F
100
AcDbEntity
  8
1
  6
Continuous
 62
     7
370
     9
100
AcDbLine
 10
55.46967337219233
 20
92.36003110419907
 30
0.0
 11
55.46967337219233
 21
78.86003110419907
 31
0.0
  0
LINE
  5
C8
330
1F
100
AcDbEntity
  8
1
  6
Continuous
 62
     7
370
     9
100
AcDbLine
 10
51.96967340590983
 20
92.86003110419907
 30
0.0
 11
52.25834825973651
 21
92.36003110419907
 31
0.0
  0
ARC
  5
C9
330
1F
100
AcDbEntity
  8
1
  6
Continuous
 62
     7
370
     9
100
AcDbCircle
 10
82.16967340590979
 20
92.06003110419907
 30
0.0
 40
0.7999999999999972
100
AcDbArc
 50
0.0
 51
89.99999999999991
  0
ARC
  5
CA
330
1F
100
AcDbEntity
  8
1
  6
Continuous
 62
     7
370
     9
100
AcDbCircle
 10
82.16967340590979
 20
79.16003110419906
 30
0.0
 40
0.7999999999999972
100
AcDbArc
 50
269.9999999999998
 51
0.0
  0
ARC
  5
CB
330
1F
100
AcDbEntity
  8
1
  6
Continuous
 62
     7
370
     9
100
AcDbCircle
 10
49.76967337219233
 20
79.16003110419906
 30
0.0
 40
0.8000000000000007
100
AcDbArc
 50
179.9999999999998
 51
270.0000000000007
  0
CIRCLE
  5
CC
330
1F
100
AcDbEntity
  8
1
  6
Continuous
 62
     7
370
     9
100
AcDbCircle
 10
65.96967338905107
 20
85.61003110419907
 30
0.0
 40
4.857999690479812
  0
CIRCLE
  5
CD
330
1F
100
AcDbEntity
  8
1
  6
Continuous
 62
     7
370
     9
100
AcDbCircle
 10
65.96967338905107
 20
85.61003110419907
 30
0.0
 40
5.050000000000001
  0
ARC
  5
CE
330
1F
100
AcDbEntity
  8
1
  6
Continuous
 62
     7
370
     9
100
AcDbCircle
 10
49.76967337219233
 20
92.06003110419907
 30
0.0
 40
0.8000000000000007
100
AcDbArc
 50
89.99999999999991
 51
180.0000000000007
  0
CIRCLE
  5
CF
330
1F
100
AcDbEntity
  8
1
  6
Continuous
 62
     7
370
     9
100
AcDbCircle
 10
65.96967338905107
 20
85.61003110419907
 30
0.0
 40
4.258256788161393
  0
CIRCLE
  5
D0
330
1F
100
AcDbEntity
  8
1
  6
Continuous
 62
     7
370
     9
100
AcDbCircle
 10
65.96967338905107
 20
85.61003110419907
 30
0.0
 40
7.250000000000004
  0
CIRCLE
  5
D1
330
1F
100
AcDbEntity
  8
1
  6
Continuous
 62
     7
370
     9
100
AcDbCircle
 10
65.96967338905107
 20
85.61003110419907
 30
0.0
 40
3.749999999999996
  0
LINE
  5
D2
330
1F
100
AcDbEntity
  8
1
  6
Continuous
 62
     7
370
     9
100
AcDbLine
 10
52.25834825973648
 20
136.6100311041991
 30
0.0
 11
52.25834825973648
 21
123.1100311041991
 31
0.0
  0
LINE
  5
D3
330
1F
100
AcDbEntity
  8
1
  6
Continuous
 62
     7
370
     9
100
AcDbLine
 10
71.71967337219233
 20
122.1100311041991
 30
0.0
 11
71.71967337219233
 21
121.092081911768
 31
0.0
  0
LINE
  5
D4
330
1F
100
AcDbEntity
  8
1
  6
Continuous
 62
     7
370
     9
100
AcDbLine
 10
72.71967337219233
 20
119.3600311041992
 30
0.0
 11
72.71967337219233
 21
116.1487059580257
 31
0.0
  0
LINE
  5
D5
330
1F
100
AcDbEntity
  8
1
  6
Continuous
 62
     7
370
     9
100
AcDbLine
 10
59.2196734059098
 20
119.3600311041992
 30
0.0
 11
59.2196734059098
 21
116.1487059580257
 31
0.0
  0
LINE
  5
D6
330
1F
100
AcDbEntity
  8
1
  6
Continuous
 62
     7
370
     9
100
AcDbLine
 10
60.2196734059098
 20
122.1100311041991
 30
0.0
 11
60.2196734059098
 21
121.092081911768
 31
0.0
  0
LINE
  5
D7
330
1F
100
AcDbEntity
  8
1
  6
Continuous
 62
     7
370
     9
100
AcDbLine
 10
58.71967340590979
 20
115.860031104199
 30
0.0
 11
59.2196734059098
 21
116.1487059580257
 31
0.0
  0
LINE
  5
D8
330
1F
100
AcDbEntity
  8
1
  6
Continuous
 62
     7
370
     9
100
AcDbLine
 10
79.9696734059098
 20
122.6100311041991
 30
0.0
 11
79.68099855208312
 21
123.1100311041991
 31
0.0
  0
LINE
  5
D9
330
1F
100
AcDbEntity
  8
1
  6
Continuous
 62
     7
370
     9
100
AcDbLine
 10
76.4696734059098
 20
123.1100311041991
 30
0.0
 11
79.68099855208312
 21
123.1100311041991
 31
0.0
  0
LINE
  5
DA
330
1F
100
AcDbEntity
  8
1
  6
Continuous
 62
     7
370
     9
100
AcDbLine
 10
74.73762259834093
 20
124.1100311041991
 30
0.0
 11
76.4696734059098
 21
123.1100311041991
 31
0.0
  0
LINE
  5
DB
330
1F
100
AcDbEntity
  8
1
  6
Continuous
 62
     7
370
     9
100
AcDbLine
 10
73.2196734059098
 20
115.8600311041992
 30
0.0
 11
72.7196734059098
 21
116.1487059580259
 31
0.0
  0
LINE
  5
DC
330
1F
100
AcDbEntity
  8
1
  6
Continuous
 62
     7
370
     9
100
AcDbLine
 10
79.9696734059098
 20
122.6100311041991
 30
0.0
 11
82.16967340590979
 21
122.6100311041991
 31
0.0
  0
LINE
  5
DD
330
1F
100
AcDbEntity
  8
1
  6
Continuous
 62
     7
370
     9
100
AcDbLine
 10
79.9696734059098
 20
137.1100311041991
 30
0.0
 11
82.16967340590979
 21
137.1100311041991
 31
0.0
  0
LINE
  5
DE
330
1F
100
AcDbEntity
  8
1
  6
Continuous
 62
     7
370
     9
100
AcDbLine
 10
74.73762259834093
 20
135.6100311041991
 30
0.0
 11
76.4696734059098
 21
136.6100311041991
 31
0.0
  0
LINE
  5
DF
330
1F
100
AcDbEntity
  8
1
  6
Continuous
 62
     7
370
     9
100
AcDbLine
 10
51.96967337219233
 20
122.6100311041991
 30
0.0
 11
52.25834822601902
 21
123.1100311041991
 31
0.0
  0
LINE
  5
E0
330
1F
100
AcDbEntity
  8
1
  6
Continuous
 62
     7
370
     9
100
AcDbLine
 10
58.7196733721923
 20
115.8600311041992
 30
0.0
 11
59.21967337219229
 21
116.1487059580259
 31
0.0
  0
LINE
  5
E1
330
1F
100
AcDbEntity
  8
1
  6
Continuous
 62
     7
370
     9
100
AcDbLine
 10
57.2017241797612
 20
124.1100311041991
 30
0.0
 11
55.46967337219232
 21
123.1100311041991
 31
0.0
  0
LINE
  5
E2
330
1F
100
AcDbEntity
  8
1
  6
Continuous
 62
     7
370
     9
100
AcDbLine
 10
55.46967337219233
 20
123.1100311041991
 30
0.0
 11
52.25834822601901
 21
123.1100311041991
 31
0.0
  0
LINE
  5
E3
330
1F
100
AcDbEntity
  8
1
  6
Continuous
 62
     7
370
     9
100
AcDbLine
 10
59.51967333847485
 20
112.8600311041991
 30
0.0
 11
72.41967340590979
 21
112.8600311041991
 31
0.0
  0
LINE
  5
E4
330
1F
100
AcDbEntity
  8
1
  6
Continuous
 62
     7
370
     9
100
AcDbLine
 10
58.7196734059098
 20
115.8600311041991
 30
0.0
 11
58.7196734059098
 21
113.6600311041991
 31
0.0
  0
LINE
  5
E5
330
1F
100
AcDbEntity
  8
1
  6
Continuous
 62
     7
370
     9
100
AcDbLine
 10
60.21967340590977
 20
121.092081911768
 30
0.0
 11
59.21967340590977
 21
119.3600311041991
 31
0.0
  0
LINE
  5
E6
330
1F
100
AcDbEntity
  8
1
  6
Continuous
 62
     7
370
     9
100
AcDbLine
 10
71.7196734059098
 20
121.0920819117679
 30
0.0
 11
72.7196734059098
 21
119.3600311041991
 31
0.0
  0
LINE
  5
E7
330
1F
100
AcDbEntity
  8
1
  6
Continuous
 62
     7
370
     9
100
AcDbLine
 10
82.9696734059098
 20
136.3100311041991
 30
0.0
 11
82.9696734059098
 21
123.4100311041991
 31
0.0
  0
LINE
  5
E8
330
1F
100
AcDbEntity
  8
1
  6
Continuous
 62
     7
370
     9
100
AcDbLine
 10
73.2196734059098
 20
115.8600311041991
 30
0.0
 11
73.2196734059098
 21
113.6600311041991
 31
0.0
  0
LINE
  5
E9
330
1F
100
AcDbEntity
  8
1
  6
Continuous
 62
     7
370
     9
100
AcDbLine
 10
79.9696734059098
 20
137.1100311041991
 30
0.0
 11
79.68099855208312
 21
136.610031104199
 31
0.0
  0
LINE
  5
EA
330
1F
100
AcDbEntity
  8
1
  6
Continuous
 62
     7
370
     9
100
AcDbLine
 10
76.4696734059098
 20
136.6100311041991
 30
0.0
 11
79.68099855208312
 21
136.6100311041991
 31
0.0
  0
LINE
  5
EB
330
1F
100
AcDbEntity
  8
1
  6
Continuous
 62
     7
370
     9
100
AcDbLine
 10
79.68099851836566
 20
136.6100311041991
 30
0.0
 11
79.68099851836566
 21
123.1100311041991
 31
0.0
  0
LINE
  5
EC
330
1F
100
AcDbEntity
  8
1
  6
Continuous
 62
     7
370
     9
100
AcDbLine
 10
73.7196734059098
 20
124.1100311041991
 30
0.0
 11
74.7376225983409
 21
124.1100311041991
 31
0.0
  0
LINE
  5
ED
330
1F
100
AcDbEntity
  8
1
  6
Continuous
 62
     7
370
     9
100
AcDbLine
 10
51.96967337219232
 20
137.1100311041991
 30
0.0
 11
49.76967337219233
 21
137.1100311041991
 31
0.0
  0
LINE
  5
EE
330
1F
100
AcDbEntity
  8
1
  6
Continuous
 62
     7
370
     9
100
AcDbLine
 10
51.96967340590979
 20
137.1100311041991
 30
0.0
 11
51.96967340590979
 21
122.6100311041991
 31
0.0
  0
LINE
  5
EF
330
1F
100
AcDbEntity
  8
1
  6
Continuous
 62
     7
370
     9
100
AcDbLine
 10
59.21967337219233
 20
116.1487059580259
 30
0.0
 11
72.71967337219233
 21
116.1487059580259
 31
0.0
  0
LINE
  5
F0
330
1F
100
AcDbEntity
  8
1
  6
Continuous
 62
     7
370
     9
100
AcDbLine
 10
58.71967337219233
 20
115.8600311041991
 30
0.0
 11
73.21967337219233
 21
115.8600311041991
 31
0.0
  0
LINE
  5
F1
330
1F
100
AcDbEntity
  8
1
  6
Continuous
 62
     7
370
     9
100
AcDbLine
 10
58.21967337219233
 20
124.1100311041991
 30
0.0
 11
57.20172417976123
 21
124.1100311041991
 31
0.0
  0
LINE
  5
F2
330
1F
100
AcDbEntity
  8
1
  6
Continuous
 62
     7
370
     9
100
AcDbLine
 10
55.46967337219233
 20
136.6100311041991
 30
0.0
 11
52.25834822601901
 21
136.6100311041991
 31
0.0
  0
LINE
  5
F3
330
1F
100
AcDbEntity
  8
1
  6
Continuous
 62
     7
370
     9
100
AcDbLine
 10
51.96967337219232
 20
137.110031104199
 30
0.0
 11
52.25834822601901
 21
136.610031104199
 31
0.0
  0
LINE
  5
F4
330
1F
100
AcDbEntity
  8
1
  6
Continuous
 62
     7
370
     9
100
AcDbLine
 10
48.9696734059098
 20
136.3100311041991
 30
0.0
 11
48.9696734059098
 21
123.4100311041991
 31
0.0
  0
LINE
  5
F5
330
1F
100
AcDbEntity
  8
1
  6
Continuous
 62
     7
370
     9
100
AcDbLine
 10
51.96967340590979
 20
122.6100311041991
 30
0.0
 11
49.7696734059098
 21
122.6100311041991
 31
0.0
  0
LINE
  5
F6
330
1F
100
AcDbEntity
  8
1
  6
Continuous
 62
     7
370
     9
100
AcDbLine
 10
57.20172421347868
 20
135.6100311041991
 30
0.0
 11
55.4696734059098
 21
136.6100311041991
 31
0.0
  0
LINE
  5
F7
330
1F
100
AcDbEntity
  8
1
  6
Continuous
 62
     7
370
     9
100
AcDbLine
 10
57.20172421347867
 20
135.6100311041991
 30
0.0
 11
74.7376225983409
 21
135.6100311041991
 31
0.0
  0
LINE
  5
F8
330
1F
100
AcDbEntity
  8
1
  6
Continuous
 62
     7
370
     9
100
AcDbLine
 10
55.46967337219233
 20
136.6100311041991
 30
0.0
 11
55.46967337219233
 21
123.1100311041991
 31
0.0
  0
LINE
  5
F9
330
1F
100
AcDbEntity
  8
1
  6
Continuous
 62
     7
370
     9
100
AcDbLine
 10
59.21967337219233
 20
119.3600311041992
 30
0.0
 11
72.71967337219233
 21
119.3600311041992
 31
0.0
  0
LINE
  5
FA
330
1F
100
AcDbEntity
  8
1
  6
Continuous
 62
     7
370
     9
100
AcDbLine
 10
57.2017241797612
 20
135.6100311041991
 30
0.0
 11
57.2017241797612
 21
124.1100311041991
 31
0.0
  0
LINE
  5
FB
330
1F
100
AcDbEntity
  8
1
  6
Continuous
 62
     7
370
     9
100
AcDbLine
 10
74.73762259834093
 20
135.6100311041991
 30
0.0
 11
74.73762259834093
 21
124.1100311041991
 31
0.0
  0
LINE
  5
FC
330
1F
100
AcDbEntity
  8
1
  6
Continuous
 62
     7
370
     9
100
AcDbLine
 10
76.4696734059098
 20
136.6100311041991
 30
0.0
 11
76.4696734059098
 21
123.1100311041991
 31
0.0
  0
LINE
  5
FD
330
1F
100
AcDbEntity
  8
1
  6
Continuous
 62
     7
370
     9
100
AcDbLine
 10
60.21967337219236
 20
121.092081911768
 30
0.0
 11
71.71967337219233
 21
121.092081911768
 31
0.0
  0
LINE
  5
FE
330
1F
100
AcDbEntity
  8
1
  6
Continuous
 62
     7
370
     9
100
AcDbLine
 10
79.96967337219236
 20
137.1100311041991
 30
0.0
 11
79.96967337219236
 21
122.6100311041991
 31
0.0
  0
LINE
  5
FF
330
1F
100
AcDbEntity
  8
1
  6
Continuous
 62
     7
370
     9
100
AcDbLine
 10
64.96967338712828
 20
128.8600311041991
 30
0.0
 11
60.34099373562871
 21
124.2313514615994
 31
0.0
  0
LINE
  5
100
330
1F
100
AcDbEntity
  8
1
  6
Continuous
 62
     7
370
     9
100
AcDbLine
 10
66.96967339097384
 20
128.8600311041991
 30
0.0
 11
71.59835305933215
 21
124.2313514447407
 31
0.0
  0
ARC
  5
101
330
1F
100
AcDbEntity
  8
1
  6
Continuous
 62
     7
370
     9
100
AcDbCircle
 10
82.16967340590979
 20
123.4100311041991
 30
0.0
 40
0.7999999999999972
100
AcDbArc
 50
270.0000000000017
 51
0.0
  0
ARC
  5
102
330
1F
100
AcDbEntity
  8
1
  6
Continuous
 62
     7
370
     9
100
AcDbCircle
 10
73.71967337219233
 20
122.1100311041991
 30
0.0
 40
2.0
100
AcDbArc
 50
89.99999999999991
 51
179.9999999999998
  0
ARC
  5
103
330
1F
100
AcDbEntity
  8
1
  6
Continuous
 62
     7
370
     9
100
AcDbCircle
 10
49.76967337219233
 20
123.4100311041991
 30
0.0
 40
0.8000000000000007
100
AcDbArc
 50
179.9999999999998
 51
270.0000000000007
  0
ARC
  5
104
330
1F
100
AcDbEntity
  8
1
  6
Continuous
 62
     7
370
     9
100
AcDbCircle
 10
72.41967337219232
 20
113.6600311041991
 30
0.0
 40
0.7999999999999972
100
AcDbArc
 50
270.0000000000017
 51
0.0
  0
ARC
  5
105
330
1F
100
AcDbEntity
  8
1
  6
Continuous
 62
     7
370
     9
100
AcDbCircle
 10
82.16967340590979
 20
136.3100311041991
 30
0.0
 40
0.7999999999999972
100
AcDbArc
 50
0.0
 51
89.99999999999991
  0
ARC
  5
106
330
1F
100
AcDbEntity
  8
1
  6
Continuous
 62
     7
370
     9
100
AcDbCircle
 10
58.21967337219233
 20
122.1100311041991
 30
0.0
 40
2.0
100
AcDbArc
 50
0.0000000000008142
 51
89.99999999999991
  0
ARC
  5
107
330
1F
100
AcDbEntity
  8
1
  6
Continuous
 62
     7
370
     9
100
AcDbCircle
 10
59.5196734059098
 20
113.6600311041991
 30
0.0
 40
0.8000000000000007
100
AcDbArc
 50
179.9999999999998
 51
270.0000000000007
  0
ARC
  5
108
330
1F
100
AcDbEntity
  8
1
  6
Continuous
 62
     7
370
     9
100
AcDbCircle
 10
49.7696734059098
 20
136.3100311041991
 30
0.0
 40
0.8000000000000007
100
AcDbArc
 50
89.99999999999991
 51
179.9999999999998
  0
LINE
  5
109
330
1F
100
AcDbEntity
  8
1
  6
Continuous
 62
     7
370
     9
100
AcDbLine
 10
116.9696734059098
 20
116.0484045160966
 30
0.0
 11
103.4696734059098
 21
116.0484045160966
 31
0.0
  0
LINE
  5
10A
330
1F
100
AcDbEntity
  8
1
  6
Continuous
 62
     7
370
     9
100
AcDbLine
 10
117.4696734059098
 20
115.7597296622699
 30
0.0
 11
102.9696734059098
 21
115.7597296622699
 31
0.0
  0
LINE
  5
10B
330
1F
100
AcDbEntity
  8
1
  6
Continuous
 62
     7
370
     9
100
AcDbLine
 10
102.9696734059098
 20
115.7597296622699
 30
0.0
 11
102.9696734059098
 21
113.5597296622699
 31
0.0
  0
LINE
  5
10C
330
1F
100
AcDbEntity
  8
1
  6
Continuous
 62
     7
370
     9
100
AcDbLine
 10
115.9696734059099
 20
120.9917804698388
 30
0.0
 11
116.9696734059099
 21
119.2597296622699
 31
0.0
  0
LINE
  5
10D
330
1F
100
AcDbEntity
  8
1
  6
Continuous
 62
     7
370
     9
100
AcDbLine
 10
116.9696734059098
 20
119.2597296622699
 30
0.0
 11
103.4696734059098
 21
119.2597296622699
 31
0.0
  0
LINE
  5
10E
330
1F
100
AcDbEntity
  8
1
  6
Continuous
 62
     7
370
     9
100
AcDbLine
 10
104.4696734059098
 20
125.343849229106
 30
0.0
 11
104.4696734059098
 21
120.9917804698387
 31
0.0
  0
LINE
  5
10F
330
1F
100
AcDbEntity
  8
1
  6
Continuous
 62
     7
370
     9
100
AcDbLine
 10
115.9696734059098
 20
120.9917804698387
 30
0.0
 11
104.4696734059098
 21
120.9917804698387
 31
0.0
  0
LINE
  5
110
330
1F
100
AcDbEntity
  8
1
  6
Continuous
 62
     7
370
     9
100
AcDbLine
 10
117.4696734059098
 20
115.7597296622699
 30
0.0
 11
117.4696734059098
 21
113.5597296622699
 31
0.0
  0
LINE
  5
111
330
1F
100
AcDbEntity
  8
1
  6
Continuous
 62
     7
370
     9
100
AcDbLine
 10
104.4696734059098
 20
120.9917804698388
 30
0.0
 11
103.4696734059098
 21
119.2597296622699
 31
0.0
  0
LINE
  5
112
330
1F
100
AcDbEntity
  8
1
  6
Continuous
 62
     7
370
     9
100
AcDbLine
 10
116.6696734059098
 20
112.7597296622699
 30
0.0
 11
103.7696734059098
 21
112.7597296622699
 31
0.0
  0
LINE
  5
113
330
1F
100
AcDbEntity
  8
1
  6
Continuous
 62
     7
370
     9
100
AcDbLine
 10
103.4696734059098
 20
119.2597296622699
 30
0.0
 11
103.4696734059098
 21
116.0484045160966
 31
0.0
  0
LINE
  5
114
330
1F
100
AcDbEntity
  8
1
  6
Continuous
 62
     7
370
     9
100
AcDbLine
 10
102.9696734059097
 20
115.75972966227
 30
0.0
 11
103.4696734059097
 21
116.0484045160967
 31
0.0
  0
LINE
  5
115
330
1F
100
AcDbEntity
  8
1
  6
Continuous
 62
     7
370
     9
100
AcDbLine
 10
117.4696734059098
 20
115.7597296622699
 30
0.0
 11
116.9696734059098
 21
116.0484045160966
 31
0.0
  0
LINE
  5
116
330
1F
100
AcDbEntity
  8
1
  6
Continuous
 62
     7
370
     9
100
AcDbLine
 10
115.9696734059098
 20
125.343849229106
 30
0.0
 11
115.9696734059098
 21
120.9917804698387
 31
0.0
  0
LINE
  5
117
330
1F
100
AcDbEntity
  8
1
  6
Continuous
 62
     7
370
     9
100
AcDbLine
 10
116.9696734059098
 20
119.2597296622699
 30
0.0
 11
116.9696734059098
 21
116.0484045160966
 31
0.0
  0
CIRCLE
  5
118
330
1F
100
AcDbEntity
  8
1
  6
Continuous
 62
     7
370
     9
100
AcDbCircle
 10
110.2196734059098
 20
129.7597296622699
 30
0.0
 40
3.75
  0
CIRCLE
  5
119
330
1F
100
AcDbEntity
  8
1
  6
Continuous
 62
     7
370
     9
100
AcDbCircle
 10
110.2196734059098
 20
129.7597296622699
 30
0.0
 40
7.25
  0
ARC
  5
11A
330
1F
100
AcDbEntity
  8
1
  6
Continuous
 62
     7
370
     9
100
AcDbCircle
 10
103.7696734059098
 20
113.5597296622699
 30
0.0
 40
0.7999999999999972
100
AcDbArc
 50
179.9999999999998
 51
269.9999999999998
  0
ARC
  5
11B
330
1F
100
AcDbEntity
  8
1
  6
Continuous
 62
     7
370
     9
100
AcDbCircle
 10
116.6696734059098
 20
113.5597296622699
 30
0.0
 40
0.7999999999999972
100
AcDbArc
 50
269.9999999999998
 51
0.0
  0
CIRCLE
  5
11C
330
1F
100
AcDbEntity
  8
1
  6
Continuous
 62
     7
370
     9
100
AcDbCircle
 10
110.2196734059098
 20
129.7597296622699
 30
0.0
 40
4.25825678816139
  0
CIRCLE
  5
11D
330
1F
100
AcDbEntity
  8
1
  6
Continuous
 62
     7
370
     9
100
AcDbCircle
 10
110.2196734059098
 20
129.7597296622699
 30
0.0
 40
5.049999999999997
  0
CIRCLE
  5
11E
330
1F
100
AcDbEntity
  8
1
  6
Continuous
 62
     7
370
     9
100
AcDbCircle
 10
110.2196734059098
 20
129.7597296622699
 30
0.0
 40
4.857999690479815
  0
MTEXT
  5
11F
330
1F
100
AcDbEntity
  8
1
  6
Continuous
 62
     7
370
     9
100
AcDbMText
 10
82.9696734059098
 20
45.86003110419907
 30
0.0
 40
25.0
 41
41.97635135135135
 46
25.0
 71
     8
 72
     1
  1
{\fＭＳ 明朝;\T0.750000;6A}
 73
     1
 44
1.0
1001
ACAD
1000
ACAD_MTEXT_DEFINED_HEIGHT_BEGIN
1070
    46
1040
25.0
1000
ACAD_MTEXT_DEFINED_HEIGHT_END
  0
LINE
  5
120
330
1F
100
AcDbEntity
  8
1
  6
Continuous
 62
     7
370
     9
100
AcDbLine
 10
223.5448022753136
 20
95.96003110419906
 30
0.0
 11
222.0004961295199
 21
95.96003110419906
 31
0.0
  0
LINE
  5
121
330
1F
100
AcDbEntity
  8
1
  6
Continuous
 62
     7
370
     9
100
AcDbLine
 10
206.96967340591
 20
97.36003110419907
 30
0.0
 11
200.7583482597367
 21
97.36003110419907
 31
0.0
  0
LINE
  5
122
330
1F
100
AcDbEntity
  8
1
  6
Continuous
 62
     7
370
     9
100
AcDbLine
 10
223.5448022753136
 20
95.96003110419906
 30
0.0
 11
223.5448022753136
 21
94.42263404538875
 31
0.0
  0
LINE
  5
123
330
1F
100
AcDbEntity
  8
1
  6
Continuous
 62
     7
370
     9
100
AcDbLine
 10
209.3945445365064
 20
95.96003110419906
 30
0.0
 11
209.3945445365064
 21
94.42263404538875
 31
0.0
  0
LINE
  5
124
330
1F
100
AcDbEntity
  8
1
  6
Continuous
 62
     7
370
     9
100
AcDbLine
 10
225.96967340591
 20
97.36003110419907
 30
0.0
 11
232.1809985520833
 21
97.36003110419907
 31
0.0
  0
LINE
  5
125
330
1F
100
AcDbEntity
  8
1
  6
Continuous
 62
     7
370
     9
100
AcDbLine
 10
200.46967340591
 20
97.86003110419907
 30
0.0
 11
198.26967340591
 21
97.86003110419907
 31
0.0
  0
LINE
  5
126
330
1F
100
AcDbEntity
  8
1
  6
Continuous
 62
     7
370
     9
100
AcDbLine
 10
200.46967340591
 20
79.86003110419907
 30
0.0
 11
200.7583482597367
 21
80.36003110419905
 31
0.0
  0
LINE
  5
127
330
1F
100
AcDbEntity
  8
1
  6
Continuous
 62
     7
370
     9
100
AcDbLine
 10
200.7583482597367
 20
97.36003110419907
 30
0.0
 11
200.7583482597367
 21
80.36003110419907
 31
0.0
  0
LINE
  5
128
330
1F
100
AcDbEntity
  8
1
  6
Continuous
 62
     7
370
     9
100
AcDbLine
 10
232.46967340591
 20
79.86003110419908
 30
0.0
 11
232.1809985520833
 21
80.36003110419908
 31
0.0
  0
LINE
  5
129
330
1F
100
AcDbEntity
  8
1
  6
Continuous
 62
     7
370
     9
100
AcDbLine
 10
232.46967340591
 20
79.86003110419907
 30
0.0
 11
234.66967340591
 21
79.86003110419907
 31
0.0
  0
LINE
  5
12A
330
1F
100
AcDbEntity
  8
1
  6
Continuous
 62
     7
370
     9
100
AcDbLine
 10
223.5448022753136
 20
95.96003110419906
 30
0.0
 11
225.96967340591
 21
97.36003110419907
 31
0.0
  0
LINE
  5
12B
330
1F
100
AcDbEntity
  8
1
  6
Continuous
 62
     7
370
     9
100
AcDbLine
 10
225.96967340591
 20
80.36003110419907
 30
0.0
 11
232.1809985520833
 21
80.36003110419907
 31
0.0
  0
LINE
  5
12C
330
1F
100
AcDbEntity
  8
1
  6
Continuous
 62
     7
370
     9
100
AcDbLine
 10
232.46967340591
 20
97.86003110419907
 30
0.0
 11
232.1809985520833
 21
97.36003110419907
 31
0.0
  0
LINE
  5
12D
330
1F
100
AcDbEntity
  8
1
  6
Continuous
 62
     7
370
     9
100
AcDbLine
 10
232.46967340591
 20
97.86003110419907
 30
0.0
 11
234.66967340591
 21
97.86003110419907
 31
0.0
  0
LINE
  5
12E
330
1F
100
AcDbEntity
  8
1
  6
Continuous
 62
     7
370
     9
100
AcDbLine
 10
235.46967340591
 20
97.06003110419907
 30
0.0
 11
235.46967340591
 21
80.66003110419906
 31
0.0
  0
LINE
  5
12F
330
1F
100
AcDbEntity
  8
1
  6
Continuous
 62
     7
370
     9
100
AcDbLine
 10
232.1809985520833
 20
97.36003110419907
 30
0.0
 11
232.1809985520833
 21
80.36003110419907
 31
0.0
  0
LINE
  5
130
330
1F
100
AcDbEntity
  8
1
  6
Continuous
 62
     7
370
     9
100
AcDbLine
 10
206.96967340591
 20
80.36003110419907
 30
0.0
 11
200.7583482597367
 21
80.36003110419907
 31
0.0
  0
LINE
  5
131
330
1F
100
AcDbEntity
  8
1
  6
Continuous
 62
     7
370
     9
100
AcDbLine
 10
209.3945445365064
 20
95.96003110419909
 30
0.0
 11
206.96967340591
 21
97.36003110419907
 31
0.0
  0
LINE
  5
132
330
1F
100
AcDbEntity
  8
1
  6
Continuous
 62
     7
370
     9
100
AcDbLine
 10
200.46967340591
 20
79.86003110419907
 30
0.0
 11
198.26967340591
 21
79.86003110419907
 31
0.0
  0
LINE
  5
133
330
1F
100
AcDbEntity
  8
1
  6
Continuous
 62
     7
370
     9
100
AcDbLine
 10
200.46967340591
 20
97.86003110419907
 30
0.0
 11
200.7583482597367
 21
97.36003110419907
 31
0.0
  0
LINE
  5
134
330
1F
100
AcDbEntity
  8
1
  6
Continuous
 62
     7
370
     9
100
AcDbLine
 10
197.46967340591
 20
97.06003110419907
 30
0.0
 11
197.46967340591
 21
80.66003110419906
 31
0.0
  0
LINE
  5
135
330
1F
100
AcDbEntity
  8
1
  6
Continuous
 62
     7
370
     9
100
AcDbLine
 10
200.46967340591
 20
97.86003110419907
 30
0.0
 11
200.46967340591
 21
79.86003110419907
 31
0.0
  0
LINE
  5
136
330
1F
100
AcDbEntity
  8
1
  6
Continuous
 62
     7
370
     9
100
AcDbLine
 10
225.96967340591
 20
97.36003110419907
 30
0.0
 11
225.96967340591
 21
80.36003110419907
 31
0.0
  0
LINE
  5
137
330
1F
100
AcDbEntity
  8
1
  6
Continuous
 62
     7
370
     9
100
AcDbLine
 10
206.96967340591
 20
97.36003110419907
 30
0.0
 11
206.96967340591
 21
80.36003110419907
 31
0.0
  0
LINE
  5
138
330
1F
100
AcDbEntity
  8
1
  6
Continuous
 62
     7
370
     9
100
AcDbLine
 10
232.46967340591
 20
97.86003110419907
 30
0.0
 11
232.46967340591
 21
79.86003110419907
 31
0.0
  0
LINE
  5
139
330
1F
100
AcDbEntity
  8
1
  6
Continuous
 62
     7
370
     9
100
AcDbLine
 10
223.5448022753136
 20
81.76003110419907
 30
0.0
 11
222.0004961295199
 21
81.76003110419907
 31
0.0
  0
LINE
  5
13A
330
1F
100
AcDbEntity
  8
1
  6
Continuous
 62
     7
370
     9
100
AcDbLine
 10
209.3945445365064
 20
81.76003110419907
 30
0.0
 11
206.96967340591
 21
80.36003110419907
 31
0.0
  0
LINE
  5
13B
330
1F
100
AcDbEntity
  8
1
  6
Continuous
 62
     7
370
     9
100
AcDbLine
 10
223.5448022753136
 20
81.76003110419907
 30
0.0
 11
225.96967340591
 21
80.36003110419908
 31
0.0
  0
LINE
  5
13C
330
1F
100
AcDbEntity
  8
1
  6
Continuous
 62
     7
370
     9
100
AcDbLine
 10
210.9388506823001
 20
95.96003110419906
 30
0.0
 11
209.3945445365064
 21
95.96003110419906
 31
0.0
  0
LINE
  5
13D
330
1F
100
AcDbEntity
  8
1
  6
Continuous
 62
     7
370
     9
100
AcDbLine
 10
209.3945445365064
 20
83.29742816300939
 30
0.0
 11
209.3945445365064
 21
81.76003110419907
 31
0.0
  0
LINE
  5
13E
330
1F
100
AcDbEntity
  8
1
  6
Continuous
 62
     7
370
     9
100
AcDbLine
 10
223.5448022753136
 20
83.29742816300939
 30
0.0
 11
223.5448022753136
 21
81.76003110419909
 31
0.0
  0
LINE
  5
13F
330
1F
100
AcDbEntity
  8
1
  6
Continuous
 62
     7
370
     9
100
AcDbLine
 10
210.9388506823001
 20
81.76003110419907
 30
0.0
 11
209.3945445365064
 21
81.76003110419907
 31
0.0
  0
ARC
  5
140
330
1F
100
AcDbEntity
  8
1
  6
Continuous
 62
     7
370
     9
100
AcDbCircle
 10
198.26967340591
 20
80.66003110419906
 30
0.0
 40
0.7999999999999998
100
AcDbArc
 50
179.9999999999998
 51
270.0000000000017
  0
ARC
  5
141
330
1F
100
AcDbEntity
  8
1
  6
Continuous
 62
     7
370
     9
100
AcDbCircle
 10
198.26967340591
 20
97.06003110419907
 30
0.0
 40
0.7999999999999998
100
AcDbArc
 50
89.99999999999991
 51
180.0000000000007
  0
ARC
  5
142
330
1F
100
AcDbEntity
  8
1
  6
Continuous
 62
     7
370
     9
100
AcDbCircle
 10
234.66967340591
 20
97.06003110419907
 30
0.0
 40
0.8000000000000007
100
AcDbArc
 50
0.0
 51
90.00000000000203
  0
ARC
  5
143
330
1F
100
AcDbEntity
  8
1
  6
Continuous
 62
     7
370
     9
100
AcDbCircle
 10
234.66967340591
 20
80.66003110419906
 30
0.0
 40
0.8000000000000007
100
AcDbArc
 50
269.9999999999998
 51
0.0
  0
CIRCLE
  5
144
330
1F
100
AcDbEntity
  8
1
  6
Continuous
 62
     7
370
     9
100
AcDbCircle
 10
216.46967340591
 20
88.86003110419907
 30
0.0
 40
6.850000000000001
  0
CIRCLE
  5
145
330
1F
100
AcDbEntity
  8
1
  6
Continuous
 62
     7
370
     9
100
AcDbCircle
 10
216.46967340591
 20
88.86003110419907
 30
0.0
 40
6.569741483684254
  0
CIRCLE
  5
146
330
1F
100
AcDbEntity
  8
1
  6
Continuous
 62
     7
370
     9
100
AcDbCircle
 10
216.46967340591
 20
88.86003110419907
 30
0.0
 40
9.0
  0
CIRCLE
  5
147
330
1F
100
AcDbEntity
  8
1
  6
Continuous
 62
     7
370
     9
100
AcDbCircle
 10
216.46967340591
 20
88.86003110419907
 30
0.0
 40
5.100000000000001
  0
CIRCLE
  5
148
330
1F
100
AcDbEntity
  8
1
  6
Continuous
 62
     7
370
     9
100
AcDbCircle
 10
216.46967340591
 20
88.86003110419907
 30
0.0
 40
5.686127155999966
  0
LINE
  5
149
330
1F
100
AcDbEntity
  8
1
  6
Continuous
 62
     7
370
     9
100
AcDbLine
 10
234.06967340591
 20
145.060031104199
 30
0.0
 11
234.06967340591
 21
128.660031104199
 31
0.0
  0
LINE
  5
14A
330
1F
100
AcDbEntity
  8
1
  6
Continuous
 62
     7
370
     9
100
AcDbLine
 10
206.06967340591
 20
120.8600311041991
 30
0.0
 11
206.06967340591
 21
118.6600311041991
 31
0.0
  0
LINE
  5
14B
330
1F
100
AcDbEntity
  8
1
  6
Continuous
 62
     7
370
     9
100
AcDbLine
 10
231.06967340591
 20
145.860031104199
 30
0.0
 11
230.7809985520833
 21
145.360031104199
 31
0.0
  0
LINE
  5
14C
330
1F
100
AcDbEntity
  8
1
  6
Continuous
 62
     7
370
     9
100
AcDbLine
 10
231.06967340591
 20
145.860031104199
 30
0.0
 11
233.26967340591
 21
145.860031104199
 31
0.0
  0
LINE
  5
14D
330
1F
100
AcDbEntity
  8
1
  6
Continuous
 62
     7
370
     9
100
AcDbLine
 10
225.56967340591
 20
128.360031104199
 30
0.0
 11
230.7809985520833
 21
128.360031104199
 31
0.0
  0
LINE
  5
14E
330
1F
100
AcDbEntity
  8
1
  6
Continuous
 62
     7
370
     9
100
AcDbLine
 10
222.1448022753136
 20
143.9600311041991
 30
0.0
 11
224.56967340591
 21
145.360031104199
 31
0.0
  0
LINE
  5
14F
330
1F
100
AcDbEntity
  8
1
  6
Continuous
 62
     7
370
     9
100
AcDbLine
 10
231.06967340591
 20
127.8600311041991
 30
0.0
 11
233.26967340591
 21
127.8600311041991
 31
0.0
  0
LINE
  5
150
330
1F
100
AcDbEntity
  8
1
  6
Continuous
 62
     7
370
     9
100
AcDbLine
 10
231.06967340591
 20
127.8600311041991
 30
0.0
 11
230.7809985520833
 21
128.360031104199
 31
0.0
  0
LINE
  5
151
330
1F
100
AcDbEntity
  8
1
  6
Continuous
 62
     7
370
     9
100
AcDbLine
 10
223.56967340591
 20
126.3600312234083
 30
0.0
 11
223.56967340591
 21
121.1487059580257
 31
0.0
  0
LINE
  5
152
330
1F
100
AcDbEntity
  8
1
  6
Continuous
 62
     7
370
     9
100
AcDbLine
 10
206.06967340591
 20
120.860031104199
 30
0.0
 11
206.56967340591
 21
121.1487059580257
 31
0.0
  0
LINE
  5
153
330
1F
100
AcDbEntity
  8
1
  6
Continuous
 62
     7
370
     9
100
AcDbLine
 10
224.06967340591
 20
120.8600311041992
 30
0.0
 11
223.5696734059101
 21
121.1487059580259
 31
0.0
  0
LINE
  5
154
330
1F
100
AcDbEntity
  8
1
  6
Continuous
 62
     7
370
     9
100
AcDbLine
 10
224.06967340591
 20
120.8600311041991
 30
0.0
 11
224.06967340591
 21
118.6600311041991
 31
0.0
  0
LINE
  5
155
330
1F
100
AcDbEntity
  8
1
  6
Continuous
 62
     7
370
     9
100
AcDbLine
 10
206.56967340591
 20
126.3600311984423
 30
0.0
 11
206.56967340591
 21
121.1487059580257
 31
0.0
  0
LINE
  5
156
330
1F
100
AcDbEntity
  8
1
  6
Continuous
 62
     7
370
     9
100
AcDbLine
 10
199.06967340591
 20
127.860031104199
 30
0.0
 11
199.3583482597367
 21
128.360031104199
 31
0.0
  0
LINE
  5
157
330
1F
100
AcDbEntity
  8
1
  6
Continuous
 62
     7
370
     9
100
AcDbLine
 10
199.06967340591
 20
145.860031104199
 30
0.0
 11
196.86967340591
 21
145.860031104199
 31
0.0
  0
LINE
  5
158
330
1F
100
AcDbEntity
  8
1
  6
Continuous
 62
     7
370
     9
100
AcDbLine
 10
206.86967340591
 20
117.8600311041991
 30
0.0
 11
223.26967340591
 21
117.8600311041991
 31
0.0
  0
LINE
  5
159
330
1F
100
AcDbEntity
  8
1
  6
Continuous
 62
     7
370
     9
100
AcDbLine
 10
224.56967340591
 20
145.360031104199
 30
0.0
 11
230.7809985520833
 21
145.360031104199
 31
0.0
  0
LINE
  5
15A
330
1F
100
AcDbEntity
  8
1
  6
Continuous
 62
     7
370
     9
100
AcDbLine
 10
205.56967340591
 20
145.360031104199
 30
0.0
 11
199.3583482597367
 21
145.360031104199
 31
0.0
  0
LINE
  5
15B
330
1F
100
AcDbEntity
  8
1
  6
Continuous
 62
     7
370
     9
100
AcDbLine
 10
222.1448022753136
 20
143.9600311041991
 30
0.0
 11
207.9945445365064
 21
143.9600311041991
 31
0.0
  0
LINE
  5
15C
330
1F
100
AcDbEntity
  8
1
  6
Continuous
 62
     7
370
     9
100
AcDbLine
 10
204.56967340591
 20
128.360031104199
 30
0.0
 11
199.3583482597367
 21
128.360031104199
 31
0.0
  0
LINE
  5
15D
330
1F
100
AcDbEntity
  8
1
  6
Continuous
 62
     7
370
     9
100
AcDbLine
 10
207.9945445365064
 20
143.9600311041991
 30
0.0
 11
205.56967340591
 21
145.360031104199
 31
0.0
  0
LINE
  5
15E
330
1F
100
AcDbEntity
  8
1
  6
Continuous
 62
     7
370
     9
100
AcDbLine
 10
199.06967340591
 20
127.8600311041991
 30
0.0
 11
196.86967340591
 21
127.8600311041991
 31
0.0
  0
LINE
  5
15F
330
1F
100
AcDbEntity
  8
1
  6
Continuous
 62
     7
370
     9
100
AcDbLine
 10
199.06967340591
 20
145.860031104199
 30
0.0
 11
199.3583482597367
 21
145.360031104199
 31
0.0
  0
LINE
  5
160
330
1F
100
AcDbEntity
  8
1
  6
Continuous
 62
     7
370
     9
100
AcDbLine
 10
196.06967340591
 20
145.060031104199
 30
0.0
 11
196.06967340591
 21
128.660031104199
 31
0.0
  0
LINE
  5
161
330
1F
100
AcDbEntity
  8
1
  6
Continuous
 62
     7
370
     9
100
AcDbLine
 10
206.06967340591
 20
120.8600311041991
 30
0.0
 11
224.06967340591
 21
120.8600311041991
 31
0.0
  0
LINE
  5
162
330
1F
100
AcDbEntity
  8
1
  6
Continuous
 62
     7
370
     9
100
AcDbLine
 10
206.56967340591
 20
121.148705958026
 30
0.0
 11
223.56967340591
 21
121.148705958026
 31
0.0
  0
LINE
  5
163
330
1F
100
AcDbEntity
  8
1
  6
Continuous
 62
     7
370
     9
100
AcDbLine
 10
231.06967340591
 20
145.860031104199
 30
0.0
 11
231.06967340591
 21
127.8600311041991
 31
0.0
  0
LINE
  5
164
330
1F
100
AcDbEntity
  8
1
  6
Continuous
 62
     7
370
     9
100
AcDbLine
 10
230.7809985520833
 20
145.360031104199
 30
0.0
 11
230.7809985520833
 21
128.360031104199
 31
0.0
  0
LINE
  5
165
330
1F
100
AcDbEntity
  8
1
  6
Continuous
 62
     7
370
     9
100
AcDbLine
 10
199.3583482597367
 20
145.360031104199
 30
0.0
 11
199.3583482597367
 21
128.360031104199
 31
0.0
  0
LINE
  5
166
330
1F
100
AcDbEntity
  8
1
  6
Continuous
 62
     7
370
     9
100
AcDbLine
 10
199.06967340591
 20
145.860031104199
 30
0.0
 11
199.06967340591
 21
127.8600311041991
 31
0.0
  0
LINE
  5
167
330
1F
100
AcDbEntity
  8
1
  6
Continuous
 62
     7
370
     9
100
AcDbLine
 10
205.56967340591
 20
145.360031104199
 30
0.0
 11
205.56967340591
 21
129.360031104199
 31
0.0
  0
LINE
  5
168
330
1F
100
AcDbEntity
  8
1
  6
Continuous
 62
     7
370
     9
100
AcDbLine
 10
207.9945445365064
 20
143.9600311041991
 30
0.0
 11
207.9945445365064
 21
130.7849022347955
 31
0.0
  0
LINE
  5
169
330
1F
100
AcDbEntity
  8
1
  6
Continuous
 62
     7
370
     9
100
AcDbLine
 10
206.56967340591
 20
126.3600311884928
 30
0.0
 11
223.56967340591
 21
126.3600311884928
 31
0.0
  0
LINE
  5
16A
330
1F
100
AcDbEntity
  8
1
  6
Continuous
 62
     7
370
     9
100
AcDbLine
 10
222.1448022753135
 20
143.9600311041991
 30
0.0
 11
222.1448022753135
 21
130.7849022347955
 31
0.0
  0
LINE
  5
16B
330
1F
100
AcDbEntity
  8
1
  6
Continuous
 62
     7
370
     9
100
AcDbLine
 10
224.56967340591
 20
145.360031104199
 30
0.0
 11
224.56967340591
 21
129.360031104199
 31
0.0
  0
LINE
  5
16C
330
1F
100
AcDbEntity
  8
1
  6
Continuous
 62
     7
370
     9
100
AcDbLine
 10
215.7767801870965
 20
136.1529243230125
 30
0.0
 11
223.56967340591
 21
128.360031104199
 31
0.0
  0
LINE
  5
16D
330
1F
100
AcDbEntity
  8
1
  6
Continuous
 62
     7
370
     9
100
AcDbLine
 10
214.3625666247234
 20
136.1529243230125
 30
0.0
 11
206.56967340591
 21
128.360031104199
 31
0.0
  0
LINE
  5
16E
330
1F
100
AcDbEntity
  8
1
  6
Continuous
 62
     7
370
     9
100
AcDbLine
 10
208.9945445365064
 20
129.7849022347954
 30
0.0
 11
221.1448022753135
 21
129.7849022347954
 31
0.0
  0
ARC
  5
16F
330
1F
100
AcDbEntity
  8
1
  6
Continuous
 62
     7
370
     9
100
AcDbCircle
 10
225.56967340591
 20
126.3600311041991
 30
0.0
 40
2.0
100
AcDbArc
 50
89.99999999999991
 51
179.9999999999998
  0
ARC
  5
170
330
1F
100
AcDbEntity
  8
1
  6
Continuous
 62
     7
370
     9
100
AcDbCircle
 10
233.26967340591
 20
128.660031104199
 30
0.0
 40
0.8000000000000007
100
AcDbArc
 50
270.0000000000017
 51
0.0
  0
ARC
  5
171
330
1F
100
AcDbEntity
  8
1
  6
Continuous
 62
     7
370
     9
100
AcDbCircle
 10
233.26967340591
 20
145.060031104199
 30
0.0
 40
0.8000000000000007
100
AcDbArc
 50
0.0
 51
89.99999999999991
  0
ARC
  5
172
330
1F
100
AcDbEntity
  8
1
  6
Continuous
 62
     7
370
     9
100
AcDbCircle
 10
196.86967340591
 20
145.060031104199
 30
0.0
 40
0.8000000000000007
100
AcDbArc
 50
89.99999999999991
 51
179.9999999999998
  0
ARC
  5
173
330
1F
100
AcDbEntity
  8
1
  6
Continuous
 62
     7
370
     9
100
AcDbCircle
 10
206.86967340591
 20
118.660031104199
 30
0.0
 40
0.8
100
AcDbArc
 50
179.9999999999998
 51
269.9999999999998
  0
ARC
  5
174
330
1F
100
AcDbEntity
  8
1
  6
Continuous
 62
     7
370
     9
100
AcDbCircle
 10
223.26967340591
 20
118.660031104199
 30
0.0
 40
0.8000000000000007
100
AcDbArc
 50
270.0000000000017
 51
0.0
  0
ARC
  5
175
330
1F
100
AcDbEntity
  8
1
  6
Continuous
 62
     7
370
     9
100
AcDbCircle
 10
196.86967340591
 20
128.660031104199
 30
0.0
 40
0.8000000000000007
100
AcDbArc
 50
179.9999999999998
 51
269.9999999999998
  0
ARC
  5
176
330
1F
100
AcDbEntity
  8
1
  6
Continuous
 62
     7
370
     9
100
AcDbCircle
 10
204.56967340591
 20
126.3600311041991
 30
0.0
 40
2.0
100
AcDbArc
 50
0.0
 51
89.99999999999991
  0
LINE
  5
177
330
1F
100
AcDbEntity
  8
1
  6
Continuous
 62
     7
370
     9
100
AcDbLine
 10
268.6322763470996
 20
129.7849022347954
 30
0.0
 11
270.16967340591
 21
129.7849022347954
 31
0.0
  0
LINE
  5
178
330
1F
100
AcDbEntity
  8
1
  6
Continuous
 62
     7
370
     9
100
AcDbLine
 10
254.06967340591
 20
120.8600311041991
 30
0.0
 11
272.06967340591
 21
120.8600311041991
 31
0.0
  0
LINE
  5
179
330
1F
100
AcDbEntity
  8
1
  6
Continuous
 62
     7
370
     9
100
AcDbLine
 10
254.56967340591
 20
121.1487059580257
 30
0.0
 11
271.56967340591
 21
121.1487059580257
 31
0.0
  0
LINE
  5
17A
330
1F
100
AcDbEntity
  8
1
  6
Continuous
 62
     7
370
     9
100
AcDbLine
 10
254.56967340591
 20
127.3600311041991
 30
0.0
 11
271.56967340591
 21
127.3600311041991
 31
0.0
  0
LINE
  5
17B
330
1F
100
AcDbEntity
  8
1
  6
Continuous
 62
     7
370
     9
100
AcDbLine
 10
255.96967340591
 20
131.3292083805891
 30
0.0
 11
255.96967340591
 21
129.7849022347954
 31
0.0
  0
LINE
  5
17C
330
1F
100
AcDbEntity
  8
1
  6
Continuous
 62
     7
370
     9
100
AcDbLine
 10
255.96967340591
 20
129.7849022347954
 30
0.0
 11
254.56967340591
 21
127.360031104199
 31
0.0
  0
LINE
  5
17D
330
1F
100
AcDbEntity
  8
1
  6
Continuous
 62
     7
370
     9
100
AcDbLine
 10
270.16967340591
 20
131.3292083805891
 30
0.0
 11
270.16967340591
 21
129.7849022347954
 31
0.0
  0
LINE
  5
17E
330
1F
100
AcDbEntity
  8
1
  6
Continuous
 62
     7
370
     9
100
AcDbLine
 10
255.96967340591
 20
129.7849022347954
 30
0.0
 11
257.5070704647203
 21
129.7849022347954
 31
0.0
  0
LINE
  5
17F
330
1F
100
AcDbEntity
  8
1
  6
Continuous
 62
     7
370
     9
100
AcDbLine
 10
271.2696734059099
 20
117.8600311041991
 30
0.0
 11
254.8696734059099
 21
117.8600311041991
 31
0.0
  0
LINE
  5
180
330
1F
100
AcDbEntity
  8
1
  6
Continuous
 62
     7
370
     9
100
AcDbLine
 10
271.56967340591
 20
127.3600311041991
 30
0.0
 11
271.56967340591
 21
121.1487059580257
 31
0.0
  0
LINE
  5
181
330
1F
100
AcDbEntity
  8
1
  6
Continuous
 62
     7
370
     9
100
AcDbLine
 10
254.06967340591
 20
120.8600311041991
 30
0.0
 11
254.06967340591
 21
118.660031104199
 31
0.0
  0
LINE
  5
182
330
1F
100
AcDbEntity
  8
1
  6
Continuous
 62
     7
370
     9
100
AcDbLine
 10
254.0696734059099
 20
120.8600311041993
 30
0.0
 11
254.5696734059099
 21
121.1487059580259
 31
0.0
  0
LINE
  5
183
330
1F
100
AcDbEntity
  8
1
  6
Continuous
 62
     7
370
     9
100
AcDbLine
 10
272.0696734059098
 20
120.860031104199
 30
0.0
 11
271.5696734059098
 21
121.1487059580257
 31
0.0
  0
LINE
  5
184
330
1F
100
AcDbEntity
  8
1
  6
Continuous
 62
     7
370
     9
100
AcDbLine
 10
254.56967340591
 20
127.3600311041991
 30
0.0
 11
254.56967340591
 21
121.1487059580257
 31
0.0
  0
LINE
  5
185
330
1F
100
AcDbEntity
  8
1
  6
Continuous
 62
     7
370
     9
100
AcDbLine
 10
270.16967340591
 20
129.7849022347955
 30
0.0
 11
271.56967340591
 21
127.3600311041991
 31
0.0
  0
LINE
  5
186
330
1F
100
AcDbEntity
  8
1
  6
Continuous
 62
     7
370
     9
100
AcDbLine
 10
272.06967340591
 20
120.8600311041991
 30
0.0
 11
272.06967340591
 21
118.660031104199
 31
0.0
  0
CIRCLE
  5
187
330
1F
100
AcDbEntity
  8
1
  6
Continuous
 62
     7
370
     9
100
AcDbCircle
 10
263.06967340591
 20
136.860031104199
 30
0.0
 40
5.686127155999969
  0
CIRCLE
  5
188
330
1F
100
AcDbEntity
  8
1
  6
Continuous
 62
     7
370
     9
100
AcDbCircle
 10
263.06967340591
 20
136.860031104199
 30
0.0
 40
5.099999999999994
  0
CIRCLE
  5
189
330
1F
100
AcDbEntity
  8
1
  6
Continuous
 62
     7
370
     9
100
AcDbCircle
 10
263.06967340591
 20
136.860031104199
 30
0.0
 40
9.0
  0
ARC
  5
18A
330
1F
100
AcDbEntity
  8
1
  6
Continuous
 62
     7
370
     9
100
AcDbCircle
 10
254.8696734059099
 20
118.660031104199
 30
0.0
 40
0.7999999999999972
100
AcDbArc
 50
179.9999999999998
 51
269.9999999999998
  0
CIRCLE
  5
18B
330
1F
100
AcDbEntity
  8
1
  6
Continuous
 62
     7
370
     9
100
AcDbCircle
 10
263.06967340591
 20
136.860031104199
 30
0.0
 40
6.569741483684254
  0
CIRCLE
  5
18C
330
1F
100
AcDbEntity
  8
1
  6
Continuous
 62
     7
370
     9
100
AcDbCircle
 10
263.06967340591
 20
136.860031104199
 30
0.0
 40
6.849999999999994
  0
ARC
  5
18D
330
1F
100
AcDbEntity
  8
1
  6
Continuous
 62
     7
370
     9
100
AcDbCircle
 10
271.2696734059099
 20
118.660031104199
 30
0.0
 40
0.7999999999999972
100
AcDbArc
 50
269.9999999999998
 51
0.0
  0
MTEXT
  5
18E
330
1F
100
AcDbEntity
  8
1
  6
Continuous
 62
     7
370
     9
100
AcDbMText
 10
234.06967340591
 20
45.86003110419907
 30
0.0
 40
25.0
 41
42.18956456456456
 46
25.0
 71
     8
 72
     1
  1
{\fＭＳ 明朝;\T0.750000;8A}
 73
     1
 44
1.0
1001
ACAD
1000
ACAD_MTEXT_DEFINED_HEIGHT_BEGIN
1070
    46
1040
25.0
1000
ACAD_MTEXT_DEFINED_HEIGHT_END
  0
LINE
  5
18F
330
1F
100
AcDbEntity
  8
1
  6
Continuous
 62
     7
370
     9
100
AcDbLine
 10
357.06967340591
 20
104.2100311280409
 30
0.0
 11
357.6181556281807
 21
103.2600311280409
 31
0.0
  0
LINE
  5
190
330
1F
100
AcDbEntity
  8
1
  6
Continuous
 62
     7
370
     9
100
AcDbLine
 10
379.6981180690771
 20
81.66003112804093
 30
0.0
 11
392.5211911836392
 21
81.66003112804093
 31
0.0
  0
LINE
  5
191
330
1F
100
AcDbEntity
  8
1
  6
Continuous
 62
     7
370
     9
100
AcDbLine
 10
357.06967340591
 20
104.2100311280409
 30
0.0
 11
353.06967340591
 21
104.2100311280409
 31
0.0
  0
LINE
  5
192
330
1F
100
AcDbEntity
  8
1
  6
Continuous
 62
     7
370
     9
100
AcDbLine
 10
357.06967340591
 20
80.71003112804092
 30
0.0
 11
353.06967340591
 21
80.71003112804092
 31
0.0
  0
LINE
  5
193
330
1F
100
AcDbEntity
  8
1
  6
Continuous
 62
     7
370
     9
100
AcDbLine
 10
393.0696734059098
 20
104.210031128041
 30
0.0
 11
392.5211911836391
 21
103.260031128041
 31
0.0
  0
LINE
  5
194
330
1F
100
AcDbEntity
  8
1
  6
Continuous
 62
     7
370
     9
100
AcDbLine
 10
398.06967340591
 20
103.2100311280409
 30
0.0
 11
398.06967340591
 21
81.71003112804092
 31
0.0
  0
LINE
  5
195
330
1F
100
AcDbEntity
  8
1
  6
Continuous
 62
     7
370
     9
100
AcDbLine
 10
393.06967340591
 20
80.71003112804092
 30
0.0
 11
397.06967340591
 21
80.71003112804092
 31
0.0
  0
LINE
  5
196
330
1F
100
AcDbEntity
  8
1
  6
Continuous
 62
     7
370
     9
100
AcDbLine
 10
393.0696734059098
 20
80.71003112804084
 30
0.0
 11
392.5211911836391
 21
81.66003112804086
 31
0.0
  0
LINE
  5
197
330
1F
100
AcDbEntity
  8
1
  6
Continuous
 62
     7
370
     9
100
AcDbLine
 10
357.0696734059099
 20
80.71003112804094
 30
0.0
 11
357.6181556281806
 21
81.66003112804093
 31
0.0
  0
LINE
  5
198
330
1F
100
AcDbEntity
  8
1
  6
Continuous
 62
     7
370
     9
100
AcDbLine
 10
393.06967340591
 20
104.2100311280409
 30
0.0
 11
397.06967340591
 21
104.2100311280409
 31
0.0
  0
LINE
  5
199
330
1F
100
AcDbEntity
  8
1
  6
Continuous
 62
     7
370
     9
100
AcDbLine
 10
352.06967340591
 20
103.2100311280409
 30
0.0
 11
352.06967340591
 21
81.71003112804092
 31
0.0
  0
LINE
  5
19A
330
1F
100
AcDbEntity
  8
1
  6
Continuous
 62
     7
370
     9
100
AcDbLine
 10
392.5211911836392
 20
103.2600311280409
 30
0.0
 11
379.6981180690771
 21
103.2600311280409
 31
0.0
  0
LINE
  5
19B
330
1F
100
AcDbEntity
  8
1
  6
Continuous
 62
     7
370
     9
100
AcDbLine
 10
393.06967340591
 20
104.2100311280409
 30
0.0
 11
393.06967340591
 21
80.71003112804092
 31
0.0
  0
LINE
  5
19C
330
1F
100
AcDbEntity
  8
1
  6
Continuous
 62
     7
370
     9
100
AcDbLine
 10
392.5211911836391
 20
103.2600311280409
 30
0.0
 11
392.5211911836391
 21
81.66003112804093
 31
0.0
  0
LINE
  5
19D
330
1F
100
AcDbEntity
  8
1
  6
Continuous
 62
     7
370
     9
100
AcDbLine
 10
370.4412287427429
 20
81.66003112804093
 30
0.0
 11
357.6181556281807
 21
81.66003112804093
 31
0.0
  0
LINE
  5
19E
330
1F
100
AcDbEntity
  8
1
  6
Continuous
 62
     7
370
     9
100
AcDbLine
 10
357.0696734059098
 20
104.2100311280409
 30
0.0
 11
357.0696734059098
 21
80.71003112804092
 31
0.0
  0
LINE
  5
19F
330
1F
100
AcDbEntity
  8
1
  6
Continuous
 62
     7
370
     9
100
AcDbLine
 10
357.6181556281805
 20
103.2600311280409
 30
0.0
 11
357.6181556281805
 21
81.66003112804093
 31
0.0
  0
LINE
  5
1A0
330
1F
100
AcDbEntity
  8
1
  6
Continuous
 62
     7
370
     9
100
AcDbLine
 10
370.4412287427429
 20
103.2600311280409
 30
0.0
 11
357.6181556281807
 21
103.2600311280409
 31
0.0
  0
ARC
  5
1A1
330
1F
100
AcDbEntity
  8
1
  6
Continuous
 62
     7
370
     9
100
AcDbCircle
 10
397.06967340591
 20
81.71003112804092
 30
0.0
 40
1.0
100
AcDbArc
 50
269.9999999999998
 51
0.0
  0
ARC
  5
1A2
330
1F
100
AcDbEntity
  8
1
  6
Continuous
 62
     7
370
     9
100
AcDbCircle
 10
353.06967340591
 20
103.2100311280409
 30
0.0
 40
1.0
100
AcDbArc
 50
89.99999999999991
 51
179.9999999999998
  0
ARC
  5
1A3
330
1F
100
AcDbEntity
  8
1
  6
Continuous
 62
     7
370
     9
100
AcDbCircle
 10
353.06967340591
 20
81.71003112804092
 30
0.0
 40
1.0
100
AcDbArc
 50
179.9999999999998
 51
269.9999999999998
  0
ARC
  5
1A4
330
1F
100
AcDbEntity
  8
1
  6
Continuous
 62
     7
370
     9
100
AcDbCircle
 10
397.06967340591
 20
103.2100311280409
 30
0.0
 40
1.0
100
AcDbArc
 50
0.0
 51
89.99999999999991
  0
CIRCLE
  5
1A5
330
1F
100
AcDbEntity
  8
1
  6
Continuous
 62
     7
370
     9
100
AcDbCircle
 10
375.06967340591
 20
92.46003112804092
 30
0.0
 40
8.59999999999999
  0
CIRCLE
  5
1A6
330
1F
100
AcDbEntity
  8
1
  6
Continuous
 62
     7
370
     9
100
AcDbCircle
 10
375.06967340591
 20
92.46003112804092
 30
0.0
 40
11.75
  0
CIRCLE
  5
1A7
330
1F
100
AcDbEntity
  8
1
  6
Continuous
 62
     7
370
     9
100
AcDbCircle
 10
375.06967340591
 20
92.46003112804092
 30
0.0
 40
8.322322580645167
  0
CIRCLE
  5
1A8
330
1F
100
AcDbEntity
  8
1
  6
Continuous
 62
     7
370
     9
100
AcDbCircle
 10
375.06967340591
 20
92.46003112804092
 30
0.0
 40
7.438709677419351
  0
LINE
  5
1A9
330
1F
100
AcDbEntity
  8
1
  6
Continuous
 62
     7
370
     9
100
AcDbLine
 10
386.81967340591
 20
129.2100311280409
 30
0.0
 11
386.81967340591
 21
125.2100311280409
 31
0.0
  0
LINE
  5
1AA
330
1F
100
AcDbEntity
  8
1
  6
Continuous
 62
     7
370
     9
100
AcDbLine
 10
364.31967340591
 20
124.2100311280409
 30
0.0
 11
385.81967340591
 21
124.2100311280409
 31
0.0
  0
LINE
  5
1AB
330
1F
100
AcDbEntity
  8
1
  6
Continuous
 62
     7
370
     9
100
AcDbLine
 10
385.86967340591
 20
133.9100311280409
 30
0.0
 11
385.86967340591
 21
129.7585133503116
 31
0.0
  0
LINE
  5
1AC
330
1F
100
AcDbEntity
  8
1
  6
Continuous
 62
     7
370
     9
100
AcDbLine
 10
398.06967340591
 20
157.9600311280409
 30
0.0
 11
398.06967340591
 21
136.4600311280409
 31
0.0
  0
LINE
  5
1AD
330
1F
100
AcDbEntity
  8
1
  6
Continuous
 62
     7
370
     9
100
AcDbLine
 10
393.0696734059098
 20
158.960031128041
 30
0.0
 11
392.5211911836391
 21
158.010031128041
 31
0.0
  0
LINE
  5
1AE
330
1F
100
AcDbEntity
  8
1
  6
Continuous
 62
     7
370
     9
100
AcDbLine
 10
386.81967340591
 20
129.2100311280408
 30
0.0
 11
385.86967340591
 21
129.7585133503115
 31
0.0
  0
LINE
  5
1AF
330
1F
100
AcDbEntity
  8
1
  6
Continuous
 62
     7
370
     9
100
AcDbLine
 10
363.3196734059099
 20
129.210031128041
 30
0.0
 11
364.2696734059099
 21
129.7585133503118
 31
0.0
  0
LINE
  5
1B0
330
1F
100
AcDbEntity
  8
1
  6
Continuous
 62
     7
370
     9
100
AcDbLine
 10
357.06967340591
 20
135.4600311280409
 30
0.0
 11
353.06967340591
 21
135.4600311280409
 31
0.0
  0
LINE
  5
1B1
330
1F
100
AcDbEntity
  8
1
  6
Continuous
 62
     7
370
     9
100
AcDbLine
 10
357.06967340591
 20
158.9600311280409
 30
0.0
 11
353.06967340591
 21
158.9600311280409
 31
0.0
  0
LINE
  5
1B2
330
1F
100
AcDbEntity
  8
1
  6
Continuous
 62
     7
370
     9
100
AcDbLine
 10
388.36967340591
 20
136.4100311280409
 30
0.0
 11
392.5211911836392
 21
136.4100311280409
 31
0.0
  0
LINE
  5
1B3
330
1F
100
AcDbEntity
  8
1
  6
Continuous
 62
     7
370
     9
100
AcDbLine
 10
364.26967340591
 20
133.9100311280409
 30
0.0
 11
364.26967340591
 21
129.7585133503116
 31
0.0
  0
LINE
  5
1B4
330
1F
100
AcDbEntity
  8
1
  6
Continuous
 62
     7
370
     9
100
AcDbLine
 10
357.06967340591
 20
158.9600311280409
 30
0.0
 11
357.6181556281807
 21
158.0100311280409
 31
0.0
  0
LINE
  5
1B5
330
1F
100
AcDbEntity
  8
1
  6
Continuous
 62
     7
370
     9
100
AcDbLine
 10
393.06967340591
 20
135.4600311280409
 30
0.0
 11
397.06967340591
 21
135.4600311280409
 31
0.0
  0
LINE
  5
1B6
330
1F
100
AcDbEntity
  8
1
  6
Continuous
 62
     7
370
     9
100
AcDbLine
 10
393.0696734059098
 20
135.4600311280408
 30
0.0
 11
392.5211911836391
 21
136.4100311280409
 31
0.0
  0
LINE
  5
1B7
330
1F
100
AcDbEntity
  8
1
  6
Continuous
 62
     7
370
     9
100
AcDbLine
 10
357.0696734059099
 20
135.4600311280409
 30
0.0
 11
357.6181556281806
 21
136.4100311280409
 31
0.0
  0
LINE
  5
1B8
330
1F
100
AcDbEntity
  8
1
  6
Continuous
 62
     7
370
     9
100
AcDbLine
 10
363.31967340591
 20
129.2100311280409
 30
0.0
 11
363.31967340591
 21
125.2100311280409
 31
0.0
  0
LINE
  5
1B9
330
1F
100
AcDbEntity
  8
1
  6
Continuous
 62
     7
370
     9
100
AcDbLine
 10
393.06967340591
 20
158.9600311280409
 30
0.0
 11
397.06967340591
 21
158.9600311280409
 31
0.0
  0
LINE
  5
1BA
330
1F
100
AcDbEntity
  8
1
  6
Continuous
 62
     7
370
     9
100
AcDbLine
 10
352.06967340591
 20
157.9600311280409
 30
0.0
 11
352.06967340591
 21
136.4600311280409
 31
0.0
  0
LINE
  5
1BB
330
1F
100
AcDbEntity
  8
1
  6
Continuous
 62
     7
370
     9
100
AcDbLine
 10
392.5211911836392
 20
158.0100311280409
 30
0.0
 11
357.6181556281807
 21
158.0100311280409
 31
0.0
  0
LINE
  5
1BC
330
1F
100
AcDbEntity
  8
1
  6
Continuous
 62
     7
370
     9
100
AcDbLine
 10
361.7696734059099
 20
136.4100311280409
 30
0.0
 11
357.6181556281807
 21
136.4100311280409
 31
0.0
  0
LINE
  5
1BD
330
1F
100
AcDbEntity
  8
1
  6
Continuous
 62
     7
370
     9
100
AcDbLine
 10
357.0696734059098
 20
158.9600311280409
 30
0.0
 11
357.0696734059098
 21
135.4600311280409
 31
0.0
  0
LINE
  5
1BE
330
1F
100
AcDbEntity
  8
1
  6
Continuous
 62
     7
370
     9
100
AcDbLine
 10
357.6181556281805
 20
158.0100311280409
 30
0.0
 11
357.6181556281805
 21
136.4100311280409
 31
0.0
  0
LINE
  5
1BF
330
1F
100
AcDbEntity
  8
1
  6
Continuous
 62
     7
370
     9
100
AcDbLine
 10
393.06967340591
 20
158.9600311280409
 30
0.0
 11
393.06967340591
 21
135.4600311280409
 31
0.0
  0
LINE
  5
1C0
330
1F
100
AcDbEntity
  8
1
  6
Continuous
 62
     7
370
     9
100
AcDbLine
 10
392.5211911836391
 20
158.0100311280409
 30
0.0
 11
392.5211911836391
 21
136.4100311280409
 31
0.0
  0
LINE
  5
1C1
330
1F
100
AcDbEntity
  8
1
  6
Continuous
 62
     7
370
     9
100
AcDbLine
 10
363.31967340591
 20
129.2100311280408
 30
0.0
 11
386.81967340591
 21
129.2100311280408
 31
0.0
  0
LINE
  5
1C2
330
1F
100
AcDbEntity
  8
1
  6
Continuous
 62
     7
370
     9
100
AcDbLine
 10
364.26967340591
 20
129.7585133503115
 30
0.0
 11
385.86967340591
 21
129.7585133503115
 31
0.0
  0
LINE
  5
1C3
330
1F
100
AcDbEntity
  8
1
  6
Continuous
 62
     7
370
     9
100
AcDbLine
 10
364.26967340591
 20
136.4100311280409
 30
0.0
 11
374.3625666247234
 21
146.5029243468543
 31
0.0
  0
LINE
  5
1C4
330
1F
100
AcDbEntity
  8
1
  6
Continuous
 62
     7
370
     9
100
AcDbLine
 10
385.86967340591
 20
136.4100311280409
 30
0.0
 11
375.7767801870965
 21
146.5029243468543
 31
0.0
  0
ARC
  5
1C5
330
1F
100
AcDbEntity
  8
1
  6
Continuous
 62
     7
370
     9
100
AcDbCircle
 10
364.31967340591
 20
125.2100311280409
 30
0.0
 40
1.0
100
AcDbArc
 50
179.9999999999998
 51
270.0000000000029
  0
ARC
  5
1C6
330
1F
100
AcDbEntity
  8
1
  6
Continuous
 62
     7
370
     9
100
AcDbCircle
 10
385.81967340591
 20
125.2100311280409
 30
0.0
 40
1.0
100
AcDbArc
 50
270.0000000000029
 51
0.0
  0
ARC
  5
1C7
330
1F
100
AcDbEntity
  8
1
  6
Continuous
 62
     7
370
     9
100
AcDbCircle
 10
361.7696734059099
 20
133.9100311280409
 30
0.0
 40
2.5
100
AcDbArc
 50
0.0
 51
89.99999999999991
  0
ARC
  5
1C8
330
1F
100
AcDbEntity
  8
1
  6
Continuous
 62
     7
370
     9
100
AcDbCircle
 10
388.36967340591
 20
133.9100311280409
 30
0.0
 40
2.5
100
AcDbArc
 50
89.99999999999991
 51
180.0000000000003
  0
ARC
  5
1C9
330
1F
100
AcDbEntity
  8
1
  6
Continuous
 62
     7
370
     9
100
AcDbCircle
 10
397.06967340591
 20
136.4600311280409
 30
0.0
 40
1.0
100
AcDbArc
 50
269.9999999999998
 51
0.0
  0
ARC
  5
1CA
330
1F
100
AcDbEntity
  8
1
  6
Continuous
 62
     7
370
     9
100
AcDbCircle
 10
353.06967340591
 20
157.9600311280409
 30
0.0
 40
1.0
100
AcDbArc
 50
89.99999999999991
 51
179.9999999999998
  0
ARC
  5
1CB
330
1F
100
AcDbEntity
  8
1
  6
Continuous
 62
     7
370
     9
100
AcDbCircle
 10
353.06967340591
 20
136.4600311280409
 30
0.0
 40
1.0
100
AcDbArc
 50
179.9999999999998
 51
269.9999999999998
  0
ARC
  5
1CC
330
1F
100
AcDbEntity
  8
1
  6
Continuous
 62
     7
370
     9
100
AcDbCircle
 10
397.06967340591
 20
157.9600311280409
 30
0.0
 40
1.0
100
AcDbArc
 50
0.0
 51
89.99999999999991
  0
LINE
  5
1CD
330
1F
100
AcDbEntity
  8
1
  6
Continuous
 62
     7
370
     9
100
AcDbLine
 10
418.06967340591
 20
129.2100311280409
 30
0.0
 11
418.06967340591
 21
125.2100311280409
 31
0.0
  0
LINE
  5
1CE
330
1F
100
AcDbEntity
  8
1
  6
Continuous
 62
     7
370
     9
100
AcDbLine
 10
419.01967340591
 20
142.5815864648737
 30
0.0
 11
419.01967340591
 21
129.7585133503116
 31
0.0
  0
LINE
  5
1CF
330
1F
100
AcDbEntity
  8
1
  6
Continuous
 62
     7
370
     9
100
AcDbLine
 10
441.5696734059101
 20
129.210031128041
 30
0.0
 11
440.61967340591
 21
129.7585133503117
 31
0.0
  0
LINE
  5
1D0
330
1F
100
AcDbEntity
  8
1
  6
Continuous
 62
     7
370
     9
100
AcDbLine
 10
440.56967340591
 20
124.2100311280409
 30
0.0
 11
419.06967340591
 21
124.2100311280409
 31
0.0
  0
LINE
  5
1D1
330
1F
100
AcDbEntity
  8
1
  6
Continuous
 62
     7
370
     9
100
AcDbLine
 10
441.56967340591
 20
129.2100311280409
 30
0.0
 11
441.56967340591
 21
125.2100311280409
 31
0.0
  0
LINE
  5
1D2
330
1F
100
AcDbEntity
  8
1
  6
Continuous
 62
     7
370
     9
100
AcDbLine
 10
418.06967340591
 20
129.2100311280409
 30
0.0
 11
419.01967340591
 21
129.7585133503116
 31
0.0
  0
LINE
  5
1D3
330
1F
100
AcDbEntity
  8
1
  6
Continuous
 62
     7
370
     9
100
AcDbLine
 10
441.56967340591
 20
129.2100311280409
 30
0.0
 11
418.0696734059098
 21
129.2100311280409
 31
0.0
  0
LINE
  5
1D4
330
1F
100
AcDbEntity
  8
1
  6
Continuous
 62
     7
370
     9
100
AcDbLine
 10
440.6196734059099
 20
142.5815864648738
 30
0.0
 11
440.6196734059099
 21
129.7585133503116
 31
0.0
  0
LINE
  5
1D5
330
1F
100
AcDbEntity
  8
1
  6
Continuous
 62
     7
370
     9
100
AcDbLine
 10
440.6196734059099
 20
129.7585133503117
 30
0.0
 11
419.01967340591
 21
129.7585133503117
 31
0.0
  0
ARC
  5
1D6
330
1F
100
AcDbEntity
  8
1
  6
Continuous
 62
     7
370
     9
100
AcDbCircle
 10
440.56967340591
 20
125.2100311280409
 30
0.0
 40
1.0
100
AcDbArc
 50
269.9999999999998
 51
0.0
  0
ARC
  5
1D7
330
1F
100
AcDbEntity
  8
1
  6
Continuous
 62
     7
370
     9
100
AcDbCircle
 10
419.06967340591
 20
125.2100311280409
 30
0.0
 40
1.0
100
AcDbArc
 50
179.9999999999998
 51
269.9999999999998
  0
CIRCLE
  5
1D8
330
1F
100
AcDbEntity
  8
1
  6
Continuous
 62
     7
370
     9
100
AcDbCircle
 10
429.81967340591
 20
147.2100311280409
 30
0.0
 40
8.599999999999994
  0
CIRCLE
  5
1D9
330
1F
100
AcDbEntity
  8
1
  6
Continuous
 62
     7
370
     9
100
AcDbCircle
 10
429.81967340591
 20
147.2100311280409
 30
0.0
 40
11.75
  0
CIRCLE
  5
1DA
330
1F
100
AcDbEntity
  8
1
  6
Continuous
 62
     7
370
     9
100
AcDbCircle
 10
429.81967340591
 20
147.2100311280409
 30
0.0
 40
8.322322580645164
  0
CIRCLE
  5
1DB
330
1F
100
AcDbEntity
  8
1
  6
Continuous
 62
     7
370
     9
100
AcDbCircle
 10
429.81967340591
 20
147.2100311280409
 30
0.0
 40
7.438709677419354
  0
MTEXT
  5
1DC
330
1F
100
AcDbEntity
  8
1
  6
Continuous
 62
     7
370
     9
100
AcDbMText
 10
398.06967340591
 20
45.86003110419907
 30
0.0
 40
25.0
 41
58.01176176176176
 46
25.0
 71
     8
 72
     1
  1
{\fＭＳ 明朝;\T0.750000;10A}
 73
     1
 44
1.0
1001
ACAD
1000
ACAD_MTEXT_DEFINED_HEIGHT_BEGIN
1070
    46
1040
25.0
1000
ACAD_MTEXT_DEFINED_HEIGHT_END
  0
LINE
  5
1DD
330
1F
100
AcDbEntity
  8
1
  6
Continuous
 62
     7
370
     9
100
AcDbLine
 10
526.5696734059101
 20
109.8600311041991
 30
0.0
 11
526.5696734059101
 21
81.86003110419907
 31
0.0
  0
LINE
  5
1DE
330
1F
100
AcDbEntity
  8
1
  6
Continuous
 62
     7
370
     9
100
AcDbLine
 10
570.0500581636394
 20
82.76003110419907
 30
0.0
 11
553.5082966958564
 21
82.76003110419907
 31
0.0
  0
LINE
  5
1DF
330
1F
100
AcDbEntity
  8
1
  6
Continuous
 62
     7
370
     9
100
AcDbLine
 10
526.5696734059101
 20
109.8600311041991
 30
0.0
 11
522.5696734059101
 21
109.8600311041991
 31
0.0
  0
LINE
  5
1E0
330
1F
100
AcDbEntity
  8
1
  6
Continuous
 62
     7
370
     9
100
AcDbLine
 10
527.0892886481807
 20
108.9600311041991
 30
0.0
 11
526.5696734059101
 21
109.8600311041991
 31
0.0
  0
LINE
  5
1E1
330
1F
100
AcDbEntity
  8
1
  6
Continuous
 62
     7
370
     9
100
AcDbLine
 10
527.0892886481807
 20
82.76003110419907
 30
0.0
 11
526.5696734059101
 21
81.86003110419908
 31
0.0
  0
LINE
  5
1E2
330
1F
100
AcDbEntity
  8
1
  6
Continuous
 62
     7
370
     9
100
AcDbLine
 10
526.5696734059101
 20
81.86003110419907
 30
0.0
 11
522.5696734059101
 21
81.86003110419907
 31
0.0
  0
LINE
  5
1E3
330
1F
100
AcDbEntity
  8
1
  6
Continuous
 62
     7
370
     9
100
AcDbLine
 10
521.5696734059101
 20
108.8600311041991
 30
0.0
 11
521.5696734059101
 21
82.86003110419907
 31
0.0
  0
LINE
  5
1E4
330
1F
100
AcDbEntity
  8
1
  6
Continuous
 62
     7
370
     9
100
AcDbLine
 10
570.0500581636394
 20
108.9600311041991
 30
0.0
 11
570.0500581636394
 21
82.76003110419907
 31
0.0
  0
LINE
  5
1E5
330
1F
100
AcDbEntity
  8
1
  6
Continuous
 62
     7
370
     9
100
AcDbLine
 10
570.5696734059101
 20
109.8600311041991
 30
0.0
 11
570.5696734059101
 21
81.86003110419907
 31
0.0
  0
LINE
  5
1E6
330
1F
100
AcDbEntity
  8
1
  6
Continuous
 62
     7
370
     9
100
AcDbLine
 10
527.0892886481807
 20
108.9600311041991
 30
0.0
 11
543.6310501159637
 21
108.9600311041991
 31
0.0
  0
LINE
  5
1E7
330
1F
100
AcDbEntity
  8
1
  6
Continuous
 62
     7
370
     9
100
AcDbLine
 10
570.5696734059101
 20
109.8600311041991
 30
0.0
 11
574.5696734059101
 21
109.8600311041991
 31
0.0
  0
LINE
  5
1E8
330
1F
100
AcDbEntity
  8
1
  6
Continuous
 62
     7
370
     9
100
AcDbLine
 10
570.0500581636394
 20
108.9600311041991
 30
0.0
 11
570.5696734059101
 21
109.8600311041991
 31
0.0
  0
LINE
  5
1E9
330
1F
100
AcDbEntity
  8
1
  6
Continuous
 62
     7
370
     9
100
AcDbLine
 10
570.0500581636394
 20
82.76003110419906
 30
0.0
 11
570.5696734059101
 21
81.86003110419904
 31
0.0
  0
LINE
  5
1EA
330
1F
100
AcDbEntity
  8
1
  6
Continuous
 62
     7
370
     9
100
AcDbLine
 10
570.5696734059101
 20
81.86003110419907
 30
0.0
 11
574.5696734059101
 21
81.86003110419907
 31
0.0
  0
LINE
  5
1EB
330
1F
100
AcDbEntity
  8
1
  6
Continuous
 62
     7
370
     9
100
AcDbLine
 10
575.5696734059101
 20
108.8600311041991
 30
0.0
 11
575.5696734059101
 21
82.86003110419907
 31
0.0
  0
LINE
  5
1EC
330
1F
100
AcDbEntity
  8
1
  6
Continuous
 62
     7
370
     9
100
AcDbLine
 10
527.0892886481807
 20
108.9600311041991
 30
0.0
 11
527.0892886481807
 21
82.76003110419907
 31
0.0
  0
LINE
  5
1ED
330
1F
100
AcDbEntity
  8
1
  6
Continuous
 62
     7
370
     9
100
AcDbLine
 10
543.6310501159637
 20
82.76003110419907
 30
0.0
 11
527.0892886481807
 21
82.76003110419907
 31
0.0
  0
LINE
  5
1EE
330
1F
100
AcDbEntity
  8
1
  6
Continuous
 62
     7
370
     9
100
AcDbLine
 10
553.5082966958564
 20
108.9600311041991
 30
0.0
 11
570.0500581636394
 21
108.9600311041991
 31
0.0
  0
ARC
  5
1EF
330
1F
100
AcDbEntity
  8
1
  6
Continuous
 62
     7
370
     9
100
AcDbCircle
 10
522.5696734059101
 20
82.86003110419907
 30
0.0
 40
1.0
100
AcDbArc
 50
179.9999999999998
 51
269.9999999999998
  0
ARC
  5
1F0
330
1F
100
AcDbEntity
  8
1
  6
Continuous
 62
     7
370
     9
100
AcDbCircle
 10
522.5696734059101
 20
108.8600311041991
 30
0.0
 40
1.0
100
AcDbArc
 50
89.99999999999991
 51
179.9999999999998
  0
ARC
  5
1F1
330
1F
100
AcDbEntity
  8
1
  6
Continuous
 62
     7
370
     9
100
AcDbCircle
 10
574.5696734059101
 20
82.86003110419907
 30
0.0
 40
1.0
100
AcDbArc
 50
269.9999999999998
 51
0.0
  0
ARC
  5
1F2
330
1F
100
AcDbEntity
  8
1
  6
Continuous
 62
     7
370
     9
100
AcDbCircle
 10
574.5696734059101
 20
108.8600311041991
 30
0.0
 40
1.0
100
AcDbArc
 50
0.0
 51
89.99999999999991
  0
CIRCLE
  5
1F3
330
1F
100
AcDbEntity
  8
1
  6
Continuous
 62
     7
370
     9
100
AcDbCircle
 10
548.5696734059101
 20
95.86003110419907
 30
0.0
 40
9.265999999999991
  0
CIRCLE
  5
1F4
330
1F
100
AcDbEntity
  8
1
  6
Continuous
 62
     7
370
     9
100
AcDbCircle
 10
548.5696734059101
 20
95.86003110419907
 30
0.0
 40
10.46548387096774
  0
CIRCLE
  5
1F5
330
1F
100
AcDbEntity
  8
1
  6
Continuous
 62
     7
370
     9
100
AcDbCircle
 10
548.5696734059101
 20
95.86003110419907
 30
0.0
 40
10.84999999999998
  0
CIRCLE
  5
1F6
330
1F
100
AcDbEntity
  8
1
  6
Continuous
 62
     7
370
     9
100
AcDbCircle
 10
548.5696734059101
 20
95.86003110419907
 30
0.0
 40
14.0
  0
LINE
  5
1F7
330
1F
100
AcDbEntity
  8
1
  6
Continuous
 62
     7
370
     9
100
AcDbLine
 10
535.56967340591
 20
129.8600311041991
 30
0.0
 11
561.56967340591
 21
129.860031104199
 31
0.0
  0
LINE
  5
1F8
330
1F
100
AcDbEntity
  8
1
  6
Continuous
 62
     7
370
     9
100
AcDbLine
 10
534.5696734059101
 20
134.8600311041991
 30
0.0
 11
535.46967340591
 21
135.3796463464698
 31
0.0
  0
LINE
  5
1F9
330
1F
100
AcDbEntity
  8
1
  6
Continuous
 62
     7
370
     9
100
AcDbLine
 10
575.5696734059101
 20
169.8600311041991
 30
0.0
 11
575.5696734059101
 21
143.8600311041991
 31
0.0
  0
LINE
  5
1FA
330
1F
100
AcDbEntity
  8
1
  6
Continuous
 62
     7
370
     9
100
AcDbLine
 10
570.5696734059101
 20
142.8600311041991
 30
0.0
 11
574.5696734059101
 21
142.8600311041991
 31
0.0
  0
LINE
  5
1FB
330
1F
100
AcDbEntity
  8
1
  6
Continuous
 62
     7
370
     9
100
AcDbLine
 10
570.0500581636394
 20
143.7600311041991
 30
0.0
 11
570.5696734059101
 21
142.860031104199
 31
0.0
  0
LINE
  5
1FC
330
1F
100
AcDbEntity
  8
1
  6
Continuous
 62
     7
370
     9
100
AcDbLine
 10
570.0500581636394
 20
169.9600311041991
 30
0.0
 11
570.5696734059101
 21
170.8600311041991
 31
0.0
  0
LINE
  5
1FD
330
1F
100
AcDbEntity
  8
1
  6
Continuous
 62
     7
370
     9
100
AcDbLine
 10
534.56967340591
 20
134.8600311041991
 30
0.0
 11
534.56967340591
 21
130.8600311041991
 31
0.0
  0
LINE
  5
1FE
330
1F
100
AcDbEntity
  8
1
  6
Continuous
 62
     7
370
     9
100
AcDbLine
 10
561.66967340591
 20
135.3796463464697
 30
0.0
 11
562.5696734059101
 21
134.860031104199
 31
0.0
  0
LINE
  5
1FF
330
1F
100
AcDbEntity
  8
1
  6
Continuous
 62
     7
370
     9
100
AcDbLine
 10
562.5696734059101
 20
134.860031104199
 30
0.0
 11
562.56967340591
 21
130.860031104199
 31
0.0
  0
LINE
  5
200
330
1F
100
AcDbEntity
  8
1
  6
Continuous
 62
     7
370
     9
100
AcDbLine
 10
570.5696734059101
 20
170.8600311041991
 30
0.0
 11
574.5696734059101
 21
170.8600311041991
 31
0.0
  0
LINE
  5
201
330
1F
100
AcDbEntity
  8
1
  6
Continuous
 62
     7
370
     9
100
AcDbLine
 10
535.46967340591
 20
141.2600317571352
 30
0.0
 11
535.46967340591
 21
135.3796463464698
 31
0.0
  0
LINE
  5
202
330
1F
100
AcDbEntity
  8
1
  6
Continuous
 62
     7
370
     9
100
AcDbLine
 10
564.16967340591
 20
143.7600311041991
 30
0.0
 11
570.0500581636394
 21
143.7600311041991
 31
0.0
  0
LINE
  5
203
330
1F
100
AcDbEntity
  8
1
  6
Continuous
 62
     7
370
     9
100
AcDbLine
 10
527.0892886481807
 20
169.9600311041991
 30
0.0
 11
570.0500581636394
 21
169.9600311041991
 31
0.0
  0
LINE
  5
204
330
1F
100
AcDbEntity
  8
1
  6
Continuous
 62
     7
370
     9
100
AcDbLine
 10
561.66967340591
 20
141.2600311041991
 30
0.0
 11
561.66967340591
 21
135.3796463464697
 31
0.0
  0
LINE
  5
205
330
1F
100
AcDbEntity
  8
1
  6
Continuous
 62
     7
370
     9
100
AcDbLine
 10
521.5696734059101
 20
169.8600311041991
 30
0.0
 11
521.5696734059101
 21
143.8600311041991
 31
0.0
  0
LINE
  5
206
330
1F
100
AcDbEntity
  8
1
  6
Continuous
 62
     7
370
     9
100
AcDbLine
 10
526.5696734059101
 20
142.8600311041991
 30
0.0
 11
522.5696734059101
 21
142.8600311041991
 31
0.0
  0
LINE
  5
207
330
1F
100
AcDbEntity
  8
1
  6
Continuous
 62
     7
370
     9
100
AcDbLine
 10
527.0892886481807
 20
143.7600311041991
 30
0.0
 11
526.5696734059101
 21
142.8600311041991
 31
0.0
  0
LINE
  5
208
330
1F
100
AcDbEntity
  8
1
  6
Continuous
 62
     7
370
     9
100
AcDbLine
 10
527.0892886481807
 20
169.9600311041991
 30
0.0
 11
526.5696734059101
 21
170.8600311041991
 31
0.0
  0
LINE
  5
209
330
1F
100
AcDbEntity
  8
1
  6
Continuous
 62
     7
370
     9
100
AcDbLine
 10
526.5696734059101
 20
170.8600311041991
 30
0.0
 11
522.5696734059101
 21
170.8600311041991
 31
0.0
  0
LINE
  5
20A
330
1F
100
AcDbEntity
  8
1
  6
Continuous
 62
     7
370
     9
100
AcDbLine
 10
532.9696734059102
 20
143.7600311041991
 30
0.0
 11
527.0892886481807
 21
143.7600311041991
 31
0.0
  0
LINE
  5
20B
330
1F
100
AcDbEntity
  8
1
  6
Continuous
 62
     7
370
     9
100
AcDbLine
 10
534.56967340591
 20
134.8600311041992
 30
0.0
 11
562.5696734059101
 21
134.860031104199
 31
0.0
  0
LINE
  5
20C
330
1F
100
AcDbEntity
  8
1
  6
Continuous
 62
     7
370
     9
100
AcDbLine
 10
570.5696734059101
 20
170.8600311041991
 30
0.0
 11
570.5696734059101
 21
142.8600311041991
 31
0.0
  0
LINE
  5
20D
330
1F
100
AcDbEntity
  8
1
  6
Continuous
 62
     7
370
     9
100
AcDbLine
 10
535.46967340591
 20
135.3796463464698
 30
0.0
 11
561.66967340591
 21
135.3796463464697
 31
0.0
  0
LINE
  5
20E
330
1F
100
AcDbEntity
  8
1
  6
Continuous
 62
     7
370
     9
100
AcDbLine
 10
570.0500581636394
 20
169.9600311041991
 30
0.0
 11
570.0500581636394
 21
143.7600311041991
 31
0.0
  0
LINE
  5
20F
330
1F
100
AcDbEntity
  8
1
  6
Continuous
 62
     7
370
     9
100
AcDbLine
 10
527.0892886481807
 20
169.9600311041991
 30
0.0
 11
527.0892886481807
 21
143.7600311041991
 31
0.0
  0
LINE
  5
210
330
1F
100
AcDbEntity
  8
1
  6
Continuous
 62
     7
370
     9
100
AcDbLine
 10
526.5696734059101
 20
170.8600311041991
 30
0.0
 11
526.5696734059101
 21
142.8600311041991
 31
0.0
  0
LINE
  5
211
330
1F
100
AcDbEntity
  8
1
  6
Continuous
 62
     7
370
     9
100
AcDbLine
 10
535.46967340591
 20
143.7600311041991
 30
0.0
 11
547.8625666247235
 21
156.1529243230125
 31
0.0
  0
LINE
  5
212
330
1F
100
AcDbEntity
  8
1
  6
Continuous
 62
     7
370
     9
100
AcDbLine
 10
561.66967340591
 20
143.7600311041991
 30
0.0
 11
549.2767801870966
 21
156.1529243230125
 31
0.0
  0
ARC
  5
213
330
1F
100
AcDbEntity
  8
1
  6
Continuous
 62
     7
370
     9
100
AcDbCircle
 10
561.56967340591
 20
130.860031104199
 30
0.0
 40
1.0
100
AcDbArc
 50
269.9999999999998
 51
0.0000000000016284
  0
ARC
  5
214
330
1F
100
AcDbEntity
  8
1
  6
Continuous
 62
     7
370
     9
100
AcDbCircle
 10
535.56967340591
 20
130.8600311041991
 30
0.0
 40
1.0
100
AcDbArc
 50
180.0000000000013
 51
269.9999999999998
  0
ARC
  5
215
330
1F
100
AcDbEntity
  8
1
  6
Continuous
 62
     7
370
     9
100
AcDbCircle
 10
574.5696734059101
 20
169.8600311041991
 30
0.0
 40
1.0
100
AcDbArc
 50
0.0
 51
89.99999999999991
  0
ARC
  5
216
330
1F
100
AcDbEntity
  8
1
  6
Continuous
 62
     7
370
     9
100
AcDbCircle
 10
574.5696734059101
 20
143.8600311041991
 30
0.0
 40
1.0
100
AcDbArc
 50
269.9999999999998
 51
0.0
  0
ARC
  5
217
330
1F
100
AcDbEntity
  8
1
  6
Continuous
 62
     7
370
     9
100
AcDbCircle
 10
564.16967340591
 20
141.2600311041991
 30
0.0
 40
2.5
100
AcDbArc
 50
89.99999999999991
 51
179.9999999999998
  0
ARC
  5
218
330
1F
100
AcDbEntity
  8
1
  6
Continuous
 62
     7
370
     9
100
AcDbCircle
 10
522.5696734059101
 20
169.8600311041991
 30
0.0
 40
1.0
100
AcDbArc
 50
89.99999999999991
 51
179.9999999999998
  0
ARC
  5
219
330
1F
100
AcDbEntity
  8
1
  6
Continuous
 62
     7
370
     9
100
AcDbCircle
 10
522.5696734059101
 20
143.8600311041991
 30
0.0
 40
1.0
100
AcDbArc
 50
180.0000000000013
 51
269.9999999999998
  0
ARC
  5
21A
330
1F
100
AcDbEntity
  8
1
  6
Continuous
 62
     7
370
     9
100
AcDbCircle
 10
532.9696734059102
 20
141.2600311041991
 30
0.0
 40
2.5
100
AcDbArc
 50
0.0
 51
89.99999999999991
  0
LINE
  5
21B
330
1F
100
AcDbEntity
  8
1
  6
Continuous
 62
     7
370
     9
100
AcDbLine
 10
595.5696734059101
 20
134.8600311041991
 30
0.0
 11
623.5696734059101
 21
134.860031104199
 31
0.0
  0
LINE
  5
21C
330
1F
100
AcDbEntity
  8
1
  6
Continuous
 62
     7
370
     9
100
AcDbLine
 10
596.5696734059101
 20
129.8600311041991
 30
0.0
 11
622.5696734059101
 21
129.860031104199
 31
0.0
  0
LINE
  5
21D
330
1F
100
AcDbEntity
  8
1
  6
Continuous
 62
     7
370
     9
100
AcDbLine
 10
596.4696734059102
 20
135.3796463464699
 30
0.0
 11
622.6696734059102
 21
135.3796463464698
 31
0.0
  0
LINE
  5
21E
330
1F
100
AcDbEntity
  8
1
  6
Continuous
 62
     7
370
     9
100
AcDbLine
 10
595.5696734059101
 20
134.8600311041991
 30
0.0
 11
595.5696734059101
 21
130.8600311041991
 31
0.0
  0
LINE
  5
21F
330
1F
100
AcDbEntity
  8
1
  6
Continuous
 62
     7
370
     9
100
AcDbLine
 10
623.5696734059101
 20
134.860031104199
 30
0.0
 11
623.5696734059101
 21
130.860031104199
 31
0.0
  0
LINE
  5
220
330
1F
100
AcDbEntity
  8
1
  6
Continuous
 62
     7
370
     9
100
AcDbLine
 10
595.5696734059101
 20
134.8600311041991
 30
0.0
 11
596.4696734059102
 21
135.3796463464698
 31
0.0
  0
LINE
  5
221
330
1F
100
AcDbEntity
  8
1
  6
Continuous
 62
     7
370
     9
100
AcDbLine
 10
596.4696734059102
 20
151.9214078142528
 30
0.0
 11
596.4696734059102
 21
135.3796463464699
 31
0.0
  0
LINE
  5
222
330
1F
100
AcDbEntity
  8
1
  6
Continuous
 62
     7
370
     9
100
AcDbLine
 10
622.6696734059102
 20
151.9214078142528
 30
0.0
 11
622.6696734059102
 21
135.3796463464699
 31
0.0
  0
LINE
  5
223
330
1F
100
AcDbEntity
  8
1
  6
Continuous
 62
     7
370
     9
100
AcDbLine
 10
623.5696734059103
 20
134.8600311041991
 30
0.0
 11
622.6696734059102
 21
135.3796463464699
 31
0.0
  0
CIRCLE
  5
224
330
1F
100
AcDbEntity
  8
1
  6
Continuous
 62
     7
370
     9
100
AcDbCircle
 10
609.5696734059102
 20
156.8600311041991
 30
0.0
 40
14.0
  0
ARC
  5
225
330
1F
100
AcDbEntity
  8
1
  6
Continuous
 62
     7
370
     9
100
AcDbCircle
 10
596.5696734059101
 20
130.8600311041991
 30
0.0
 40
1.0
100
AcDbArc
 50
180.0000000000013
 51
269.9999999999998
  0
ARC
  5
226
330
1F
100
AcDbEntity
  8
1
  6
Continuous
 62
     7
370
     9
100
AcDbCircle
 10
622.5696734059101
 20
130.860031104199
 30
0.0
 40
1.0
100
AcDbArc
 50
269.9999999999998
 51
0.0000000000016284
  0
CIRCLE
  5
227
330
1F
100
AcDbEntity
  8
1
  6
Continuous
 62
     7
370
     9
100
AcDbCircle
 10
609.5696734059102
 20
156.8600311041991
 30
0.0
 40
10.84999999999998
  0
CIRCLE
  5
228
330
1F
100
AcDbEntity
  8
1
  6
Continuous
 62
     7
370
     9
100
AcDbCircle
 10
609.5696734059102
 20
156.8600311041991
 30
0.0
 40
10.46548387096774
  0
CIRCLE
  5
229
330
1F
100
AcDbEntity
  8
1
  6
Continuous
 62
     7
370
     9
100
AcDbCircle
 10
609.5696734059102
 20
156.8600311041991
 30
0.0
 40
9.265999999999991
  0
MTEXT
  5
22A
330
1F
100
AcDbEntity
  8
1
  6
Continuous
 62
     7
370
     9
100
AcDbMText
 10
575.5696734059101
 20
45.86003110419907
 30
0.0
 40
25.0
 41
58.01176176176176
 46
25.0
 71
     8
 72
     1
  1
{\fＭＳ 明朝;\T0.750000;15A}
 73
     1
 44
1.0
1001
ACAD
1000
ACAD_MTEXT_DEFINED_HEIGHT_BEGIN
1070
    46
1040
25.0
1000
ACAD_MTEXT_DEFINED_HEIGHT_END
  0
LINE
  5
22B
330
1F
100
AcDbEntity
  8
1
  6
Continuous
 62
     7
370
     9
100
AcDbLine
 10
740.56341949477
 20
87.11003110419907
 30
0.0
 11
761.6366607040184
 21
87.11003110419907
 31
0.0
  0
LINE
  5
22C
330
1F
100
AcDbEntity
  8
1
  6
Continuous
 62
     7
370
     9
100
AcDbLine
 10
709.5026861078026
 20
119.6100311041991
 30
0.0
 11
709.5026861078027
 21
87.11003110419907
 31
0.0
  0
LINE
  5
22D
330
1F
100
AcDbEntity
  8
1
  6
Continuous
 62
     7
370
     9
100
AcDbLine
 10
762.0696734059106
 20
86.36003110419907
 30
0.0
 11
766.5696734059106
 21
86.36003110419907
 31
0.0
  0
LINE
  5
22E
330
1F
100
AcDbEntity
  8
1
  6
Continuous
 62
     7
370
     9
100
AcDbLine
 10
767.5696734059106
 20
119.3600311041991
 30
0.0
 11
767.5696734059104
 21
87.36003062606312
 31
0.0
  0
LINE
  5
22F
330
1F
100
AcDbEntity
  8
1
  6
Continuous
 62
     7
370
     9
100
AcDbLine
 10
762.0696734059105
 20
86.36003110419901
 30
0.0
 11
761.6366607040184
 21
87.11003110419904
 31
0.0
  0
LINE
  5
230
330
1F
100
AcDbEntity
  8
1
  6
Continuous
 62
     7
370
     9
100
AcDbLine
 10
709.0696734059104
 20
120.3600311041991
 30
0.0
 11
709.0696734059105
 21
86.36003110419907
 31
0.0
  0
LINE
  5
231
330
1F
100
AcDbEntity
  8
1
  6
Continuous
 62
     7
370
     9
100
AcDbLine
 10
709.5026861078026
 20
119.6100311041991
 30
0.0
 11
730.575927317051
 21
119.6100311041991
 31
0.0
  0
LINE
  5
232
330
1F
100
AcDbEntity
  8
1
  6
Continuous
 62
     7
370
     9
100
AcDbLine
 10
762.0696734059106
 20
120.3600311041991
 30
0.0
 11
766.5696734059106
 21
120.3600311041991
 31
0.0
  0
LINE
  5
233
330
1F
100
AcDbEntity
  8
1
  6
Continuous
 62
     7
370
     9
100
AcDbLine
 10
762.0696734059106
 20
120.3600311041991
 30
0.0
 11
761.6366607040184
 21
119.6100311041991
 31
0.0
  0
LINE
  5
234
330
1F
100
AcDbEntity
  8
1
  6
Continuous
 62
     7
370
     9
100
AcDbLine
 10
761.6366607040184
 20
119.6100311041991
 30
0.0
 11
761.6366607040183
 21
87.11003110419907
 31
0.0
  0
LINE
  5
235
330
1F
100
AcDbEntity
  8
1
  6
Continuous
 62
     7
370
     9
100
AcDbLine
 10
762.0696734059106
 20
120.3600311041991
 30
0.0
 11
762.0696734059104
 21
86.36003110419907
 31
0.0
  0
LINE
  5
236
330
1F
100
AcDbEntity
  8
1
  6
Continuous
 62
     7
370
     9
100
AcDbLine
 10
709.0696734059104
 20
86.36003110419904
 30
0.0
 11
709.5026861078026
 21
87.11003110419905
 31
0.0
  0
LINE
  5
237
330
1F
100
AcDbEntity
  8
1
  6
Continuous
 62
     7
370
     9
100
AcDbLine
 10
703.5696734059104
 20
119.3600311041991
 30
0.0
 11
703.5696734059104
 21
87.36003062606312
 31
0.0
  0
LINE
  5
238
330
1F
100
AcDbEntity
  8
1
  6
Continuous
 62
     7
370
     9
100
AcDbLine
 10
709.0696734059103
 20
86.36003110419907
 30
0.0
 11
704.5696734059103
 21
86.36003110419907
 31
0.0
  0
LINE
  5
239
330
1F
100
AcDbEntity
  8
1
  6
Continuous
 62
     7
370
     9
100
AcDbLine
 10
730.575927317051
 20
87.11003110419907
 30
0.0
 11
709.5026861078024
 21
87.11003110419907
 31
0.0
  0
LINE
  5
23A
330
1F
100
AcDbEntity
  8
1
  6
Continuous
 62
     7
370
     9
100
AcDbLine
 10
709.0696734059103
 20
120.3600311041991
 30
0.0
 11
704.5696734059103
 21
120.3600311041991
 31
0.0
  0
LINE
  5
23B
330
1F
100
AcDbEntity
  8
1
  6
Continuous
 62
     7
370
     9
100
AcDbLine
 10
709.0696734059103
 20
120.3600311041991
 30
0.0
 11
709.5026861078026
 21
119.6100311041991
 31
0.0
  0
LINE
  5
23C
330
1F
100
AcDbEntity
  8
1
  6
Continuous
 62
     7
370
     9
100
AcDbLine
 10
740.56341949477
 20
119.6100311041991
 30
0.0
 11
761.6366607040184
 21
119.6100311041991
 31
0.0
  0
ARC
  5
23D
330
1F
100
AcDbEntity
  8
1
  6
Continuous
 62
     7
370
     9
100
AcDbCircle
 10
766.5696734059106
 20
87.36003110419907
 30
0.0
 40
1.000000000000004
100
AcDbArc
 50
269.9999999999998
 51
0.0
  0
ARC
  5
23E
330
1F
100
AcDbEntity
  8
1
  6
Continuous
 62
     7
370
     9
100
AcDbCircle
 10
766.5696734059106
 20
119.3600311041991
 30
0.0
 40
1.000000000000004
100
AcDbArc
 50
0.0
 51
89.99999999999991
  0
ARC
  5
23F
330
1F
100
AcDbEntity
  8
1
  6
Continuous
 62
     7
370
     9
100
AcDbCircle
 10
704.5696734059104
 20
119.3600311041991
 30
0.0
 40
1.0
100
AcDbArc
 50
89.99999999999991
 51
179.9999999999998
  0
ARC
  5
240
330
1F
100
AcDbEntity
  8
1
  6
Continuous
 62
     7
370
     9
100
AcDbCircle
 10
704.5696734059104
 20
87.36003110419907
 30
0.0
 40
1.0
100
AcDbArc
 50
179.9999999999998
 51
269.9999999999998
  0
CIRCLE
  5
241
330
1F
100
AcDbEntity
  8
1
  6
Continuous
 62
     7
370
     9
100
AcDbCircle
 10
735.5696734059104
 20
103.3600311041991
 30
0.0
 40
17.0
  0
CIRCLE
  5
242
330
1F
100
AcDbEntity
  8
1
  6
Continuous
 62
     7
370
     9
100
AcDbCircle
 10
735.5696734059104
 20
103.3600311041991
 30
0.0
 40
13.55
  0
CIRCLE
  5
243
330
1F
100
AcDbEntity
  8
1
  6
Continuous
 62
     7
370
     9
100
AcDbCircle
 10
735.5696734059104
 20
103.3600311041991
 30
0.0
 40
13.20987096774194
  0
CIRCLE
  5
244
330
1F
100
AcDbEntity
  8
1
  6
Continuous
 62
     7
370
     9
100
AcDbCircle
 10
735.5696734059104
 20
103.3600311041991
 30
0.0
 40
11.99432220404511
  0
LINE
  5
245
330
1F
100
AcDbEntity
  8
1
  6
Continuous
 62
     7
370
     9
100
AcDbLine
 10
718.5696734059104
 20
145.860031104199
 30
0.0
 11
719.3196734059104
 21
146.2930438060912
 31
0.0
  0
LINE
  5
246
330
1F
100
AcDbEntity
  8
1
  6
Continuous
 62
     7
370
     9
100
AcDbLine
 10
762.0696734059105
 20
155.3600311041991
 30
0.0
 11
761.6366607040184
 21
156.1100311041991
 31
0.0
  0
LINE
  5
247
330
1F
100
AcDbEntity
  8
1
  6
Continuous
 62
     7
370
     9
100
AcDbLine
 10
767.5696734059106
 20
188.3600311041992
 30
0.0
 11
767.5696734059104
 21
156.3600306260632
 31
0.0
  0
LINE
  5
248
330
1F
100
AcDbEntity
  8
1
  6
Continuous
 62
     7
370
     9
100
AcDbLine
 10
762.0696734059106
 20
155.3600311041992
 30
0.0
 11
766.5696734059106
 21
155.3600311041992
 31
0.0
  0
LINE
  5
249
330
1F
100
AcDbEntity
  8
1
  6
Continuous
 62
     7
370
     9
100
AcDbLine
 10
752.5696734059104
 20
145.860031104199
 30
0.0
 11
752.5696734059104
 21
141.360031104199
 31
0.0
  0
LINE
  5
24A
330
1F
100
AcDbEntity
  8
1
  6
Continuous
 62
     7
370
     9
100
AcDbLine
 10
719.5696734059104
 20
140.360031104199
 30
0.0
 11
751.5696738840463
 21
140.3600311041991
 31
0.0
  0
LINE
  5
24B
330
1F
100
AcDbEntity
  8
1
  6
Continuous
 62
     7
370
     9
100
AcDbLine
 10
752.5696734059104
 20
145.860031104199
 30
0.0
 11
751.8196734059104
 21
146.2930438060912
 31
0.0
  0
LINE
  5
24C
330
1F
100
AcDbEntity
  8
1
  6
Continuous
 62
     7
370
     9
100
AcDbLine
 10
718.5696734059104
 20
145.860031104199
 30
0.0
 11
718.5696734059104
 21
141.360031104199
 31
0.0
  0
LINE
  5
24D
330
1F
100
AcDbEntity
  8
1
  6
Continuous
 62
     7
370
     9
100
AcDbLine
 10
754.3196734059105
 20
156.1100311041992
 30
0.0
 11
761.6366607040184
 21
156.1100311041992
 31
0.0
  0
LINE
  5
24E
330
1F
100
AcDbEntity
  8
1
  6
Continuous
 62
     7
370
     9
100
AcDbLine
 10
751.8196734059104
 20
153.6100311041992
 30
0.0
 11
751.8196734059104
 21
146.2930438060912
 31
0.0
  0
LINE
  5
24F
330
1F
100
AcDbEntity
  8
1
  6
Continuous
 62
     7
370
     9
100
AcDbLine
 10
719.3196734059104
 20
153.6100314752351
 30
0.0
 11
719.3196734059104
 21
146.2930438060911
 31
0.0
  0
LINE
  5
250
330
1F
100
AcDbEntity
  8
1
  6
Continuous
 62
     7
370
     9
100
AcDbLine
 10
709.5026861078026
 20
188.6100311041992
 30
0.0
 11
761.6366607040184
 21
188.6100311041992
 31
0.0
  0
LINE
  5
251
330
1F
100
AcDbEntity
  8
1
  6
Continuous
 62
     7
370
     9
100
AcDbLine
 10
762.0696734059106
 20
189.3600311041992
 30
0.0
 11
766.5696734059106
 21
189.3600311041992
 31
0.0
  0
LINE
  5
252
330
1F
100
AcDbEntity
  8
1
  6
Continuous
 62
     7
370
     9
100
AcDbLine
 10
762.0696734059106
 20
189.3600311041992
 30
0.0
 11
761.6366607040184
 21
188.6100311041992
 31
0.0
  0
LINE
  5
253
330
1F
100
AcDbEntity
  8
1
  6
Continuous
 62
     7
370
     9
100
AcDbLine
 10
709.0696734059104
 20
155.3600311041991
 30
0.0
 11
709.5026861078026
 21
156.1100311041992
 31
0.0
  0
LINE
  5
254
330
1F
100
AcDbEntity
  8
1
  6
Continuous
 62
     7
370
     9
100
AcDbLine
 10
703.5696734059104
 20
188.3600311041992
 30
0.0
 11
703.5696734059104
 21
156.3600306260632
 31
0.0
  0
LINE
  5
255
330
1F
100
AcDbEntity
  8
1
  6
Continuous
 62
     7
370
     9
100
AcDbLine
 10
709.0696734059103
 20
155.3600311041992
 30
0.0
 11
704.5696734059103
 21
155.3600311041992
 31
0.0
  0
LINE
  5
256
330
1F
100
AcDbEntity
  8
1
  6
Continuous
 62
     7
370
     9
100
AcDbLine
 10
716.8196734059104
 20
156.1100311041992
 30
0.0
 11
709.5026861078024
 21
156.1100311041992
 31
0.0
  0
LINE
  5
257
330
1F
100
AcDbEntity
  8
1
  6
Continuous
 62
     7
370
     9
100
AcDbLine
 10
709.0696734059103
 20
189.3600311041992
 30
0.0
 11
704.5696734059103
 21
189.3600311041992
 31
0.0
  0
LINE
  5
258
330
1F
100
AcDbEntity
  8
1
  6
Continuous
 62
     7
370
     9
100
AcDbLine
 10
709.0696734059103
 20
189.3600311041992
 30
0.0
 11
709.5026861078026
 21
188.6100311041992
 31
0.0
  0
LINE
  5
259
330
1F
100
AcDbEntity
  8
1
  6
Continuous
 62
     7
370
     9
100
AcDbLine
 10
718.5696734059104
 20
145.8600311041989
 30
0.0
 11
752.5696734059104
 21
145.860031104199
 31
0.0
  0
LINE
  5
25A
330
1F
100
AcDbEntity
  8
1
  6
Continuous
 62
     7
370
     9
100
AcDbLine
 10
719.3196734059104
 20
146.2930438060911
 30
0.0
 11
751.8196734059104
 21
146.2930438060912
 31
0.0
  0
LINE
  5
25B
330
1F
100
AcDbEntity
  8
1
  6
Continuous
 62
     7
370
     9
100
AcDbLine
 10
762.0696734059106
 20
189.3600311041992
 30
0.0
 11
762.0696734059104
 21
155.3600311041992
 31
0.0
  0
LINE
  5
25C
330
1F
100
AcDbEntity
  8
1
  6
Continuous
 62
     7
370
     9
100
AcDbLine
 10
761.6366607040184
 20
188.6100311041992
 30
0.0
 11
761.6366607040183
 21
156.1100311041992
 31
0.0
  0
LINE
  5
25D
330
1F
100
AcDbEntity
  8
1
  6
Continuous
 62
     7
370
     9
100
AcDbLine
 10
709.5026861078026
 20
188.6100311041992
 30
0.0
 11
709.5026861078027
 21
156.1100311041992
 31
0.0
  0
LINE
  5
25E
330
1F
100
AcDbEntity
  8
1
  6
Continuous
 62
     7
370
     9
100
AcDbLine
 10
709.0696734059104
 20
189.3600311041992
 30
0.0
 11
709.0696734059104
 21
155.3600311041992
 31
0.0
  0
LINE
  5
25F
330
1F
100
AcDbEntity
  8
1
  6
Continuous
 62
     7
370
     9
100
AcDbLine
 10
719.3196734059104
 20
156.1100311041992
 30
0.0
 11
734.862566624724
 21
171.6529243230126
 31
0.0
  0
LINE
  5
260
330
1F
100
AcDbEntity
  8
1
  6
Continuous
 62
     7
370
     9
100
AcDbLine
 10
751.8196734059104
 20
156.1100311041992
 30
0.0
 11
736.2767801870971
 21
171.6529243230126
 31
0.0
  0
ARC
  5
261
330
1F
100
AcDbEntity
  8
1
  6
Continuous
 62
     7
370
     9
100
AcDbCircle
 10
754.3196734059104
 20
153.6100311041992
 30
0.0
 40
2.5
100
AcDbArc
 50
89.99999999999991
 51
180.0000000000003
  0
ARC
  5
262
330
1F
100
AcDbEntity
  8
1
  6
Continuous
 62
     7
370
     9
100
AcDbCircle
 10
766.5696734059106
 20
188.3600311041992
 30
0.0
 40
1.000000000000004
100
AcDbArc
 50
0.0
 51
89.99999999999991
  0
ARC
  5
263
330
1F
100
AcDbEntity
  8
1
  6
Continuous
 62
     7
370
     9
100
AcDbCircle
 10
766.5696734059106
 20
156.3600311041992
 30
0.0
 40
1.000000000000004
100
AcDbArc
 50
269.9999999999998
 51
0.0
  0
ARC
  5
264
330
1F
100
AcDbEntity
  8
1
  6
Continuous
 62
     7
370
     9
100
AcDbCircle
 10
719.5696734059104
 20
141.360031104199
 30
0.0
 40
1.0
100
AcDbArc
 50
179.9999999999998
 51
269.9999999999998
  0
ARC
  5
265
330
1F
100
AcDbEntity
  8
1
  6
Continuous
 62
     7
370
     9
100
AcDbCircle
 10
751.5696734059104
 20
141.360031104199
 30
0.0
 40
0.9999999999999982
100
AcDbArc
 50
269.9999999999998
 51
0.0
  0
ARC
  5
266
330
1F
100
AcDbEntity
  8
1
  6
Continuous
 62
     7
370
     9
100
AcDbCircle
 10
704.5696734059104
 20
188.3600311041992
 30
0.0
 40
1.0
100
AcDbArc
 50
89.99999999999991
 51
179.9999999999998
  0
ARC
  5
267
330
1F
100
AcDbEntity
  8
1
  6
Continuous
 62
     7
370
     9
100
AcDbCircle
 10
716.8196734059104
 20
153.6100311041992
 30
0.0
 40
2.5
100
AcDbArc
 50
0.0
 51
89.99999999999991
  0
ARC
  5
268
330
1F
100
AcDbEntity
  8
1
  6
Continuous
 62
     7
370
     9
100
AcDbCircle
 10
704.5696734059104
 20
156.3600311041992
 30
0.0
 40
1.0
100
AcDbArc
 50
179.9999999999998
 51
269.9999999999998
  0
LINE
  5
269
330
1F
100
AcDbEntity
  8
1
  6
Continuous
 62
     7
370
     9
100
AcDbLine
 10
787.5696734059106
 20
145.8600311041992
 30
0.0
 11
821.3196734059106
 21
145.8600311041992
 31
0.0
  0
LINE
  5
26A
330
1F
100
AcDbEntity
  8
1
  6
Continuous
 62
     7
370
     9
100
AcDbLine
 10
788.5696734059107
 20
140.3600311041992
 30
0.0
 11
820.3196734059106
 21
140.3600311041992
 31
0.0
  0
LINE
  5
26B
330
1F
100
AcDbEntity
  8
1
  6
Continuous
 62
     7
370
     9
100
AcDbLine
 10
821.3196734059106
 20
145.8600311041992
 30
0.0
 11
821.3196734059106
 21
141.3600311041992
 31
0.0
  0
LINE
  5
26C
330
1F
100
AcDbEntity
  8
1
  6
Continuous
 62
     7
370
     9
100
AcDbLine
 10
820.5196734059105
 20
146.3219113195509
 30
0.0
 11
821.3196734059105
 21
145.8600311041992
 31
0.0
  0
LINE
  5
26D
330
1F
100
AcDbEntity
  8
1
  6
Continuous
 62
     7
370
     9
100
AcDbLine
 10
788.3696734059108
 20
146.2930438060914
 30
0.0
 11
820.5196734059107
 21
146.2930438060914
 31
0.0
  0
LINE
  5
26E
330
1F
100
AcDbEntity
  8
1
  6
Continuous
 62
     7
370
     9
100
AcDbLine
 10
787.5696734059106
 20
145.8600311041992
 30
0.0
 11
787.5696734059106
 21
141.3600311041991
 31
0.0
  0
LINE
  5
26F
330
1F
100
AcDbEntity
  8
1
  6
Continuous
 62
     7
370
     9
100
AcDbLine
 10
787.5696734059107
 20
145.8600311041992
 30
0.0
 11
788.3196734059107
 21
146.2930438060914
 31
0.0
  0
LINE
  5
270
330
1F
100
AcDbEntity
  8
1
  6
Continuous
 62
     7
370
     9
100
AcDbLine
 10
820.8196734059106
 20
167.3662850153396
 30
0.0
 11
820.8196734059106
 21
146.3219113195509
 31
0.0
  0
LINE
  5
271
330
1F
100
AcDbEntity
  8
1
  6
Continuous
 62
     7
370
     9
100
AcDbLine
 10
788.3196734059106
 20
167.3662850153396
 30
0.0
 11
788.3196734059106
 21
146.3219113195509
 31
0.0
  0
ARC
  5
272
330
1F
100
AcDbEntity
  8
1
  6
Continuous
 62
     7
370
     9
100
AcDbCircle
 10
820.3196734059106
 20
141.3600311041992
 30
0.0
 40
1.0
100
AcDbArc
 50
269.9999999999998
 51
0.0
  0
CIRCLE
  5
273
330
1F
100
AcDbEntity
  8
1
  6
Continuous
 62
     7
370
     9
100
AcDbCircle
 10
804.5696734059106
 20
172.3600311041992
 30
0.0
 40
17.0
  0
ARC
  5
274
330
1F
100
AcDbEntity
  8
1
  6
Continuous
 62
     7
370
     9
100
AcDbCircle
 10
788.5696734059106
 20
141.3600311041992
 30
0.0
 40
1.0
100
AcDbArc
 50
179.9999999999998
 51
269.9999999999998
  0
CIRCLE
  5
275
330
1F
100
AcDbEntity
  8
1
  6
Continuous
 62
     7
370
     9
100
AcDbCircle
 10
804.5696734059106
 20
172.3600311041992
 30
0.0
 40
13.55
  0
CIRCLE
  5
276
330
1F
100
AcDbEntity
  8
1
  6
Continuous
 62
     7
370
     9
100
AcDbCircle
 10
804.5696734059106
 20
172.3600311041992
 30
0.0
 40
13.20987096774194
  0
CIRCLE
  5
277
330
1F
100
AcDbEntity
  8
1
  6
Continuous
 62
     7
370
     9
100
AcDbCircle
 10
804.5696734059106
 20
172.3600311041992
 30
0.0
 40
11.9943222040451
  0
MTEXT
  5
278
330
1F
100
AcDbEntity
  8
1
  6
Continuous
 62
     7
370
     9
100
AcDbMText
 10
767.5696734059106
 20
45.86003110419907
 30
0.0
 40
25.0
 41
61.28103103103103
 46
25.0
 71
     8
 72
     1
  1
{\fＭＳ 明朝;\T0.750000;20A}
 73
     1
 44
1.0
1001
ACAD
1000
ACAD_MTEXT_DEFINED_HEIGHT_BEGIN
1070
    46
1040
25.0
1000
ACAD_MTEXT_DEFINED_HEIGHT_END
  0
LINE
  5
279
330
1F
100
AcDbEntity
  8
1
  6
Continuous
 62
     7
370
     9
100
AcDbLine
 10
933.6486946544076
 20
86.16003110419908
 30
0.0
 11
907.7815536212623
 21
86.16003110419908
 31
0.0
  0
LINE
  5
27A
330
1F
100
AcDbEntity
  8
1
  6
Continuous
 62
     7
370
     9
100
AcDbLine
 10
907.7815536212623
 20
86.16003110419908
 30
0.0
 11
907.3196734059106
 21
85.36003110419907
 31
0.0
  0
LINE
  5
27B
330
1F
100
AcDbEntity
  8
1
  6
Continuous
 62
     7
370
     9
100
AcDbLine
 10
907.3196734059106
 20
126.3600311041991
 30
0.0
 11
902.3196734059106
 21
126.3600311041991
 31
0.0
  0
LINE
  5
27C
330
1F
100
AcDbEntity
  8
1
  6
Continuous
 62
     7
370
     9
100
AcDbLine
 10
901.3196734059106
 20
125.3600311041991
 30
0.0
 11
901.3196734059106
 21
86.36003110419907
 31
0.0
  0
LINE
  5
27D
330
1F
100
AcDbEntity
  8
1
  6
Continuous
 62
     7
370
     9
100
AcDbLine
 10
907.3196734059106
 20
85.36003110419907
 30
0.0
 11
902.3196734059106
 21
85.36003110419907
 31
0.0
  0
LINE
  5
27E
330
1F
100
AcDbEntity
  8
1
  6
Continuous
 62
     7
370
     9
100
AcDbLine
 10
907.7815536212623
 20
125.5600311041991
 30
0.0
 11
907.3196734059106
 21
126.3600311041991
 31
0.0
  0
LINE
  5
27F
330
1F
100
AcDbEntity
  8
1
  6
Continuous
 62
     7
370
     9
100
AcDbLine
 10
944.9906521574138
 20
86.16003110419908
 30
0.0
 11
970.8577931905589
 21
86.16003110419908
 31
0.0
  0
LINE
  5
280
330
1F
100
AcDbEntity
  8
1
  6
Continuous
 62
     7
370
     9
100
AcDbLine
 10
907.7815536212623
 20
125.5600311041991
 30
0.0
 11
933.6486946544076
 21
125.5600311041991
 31
0.0
  0
LINE
  5
281
330
1F
100
AcDbEntity
  8
1
  6
Continuous
 62
     7
370
     9
100
AcDbLine
 10
970.8577931905589
 20
125.5600311041991
 30
0.0
 11
970.8577931905589
 21
86.16003110419908
 31
0.0
  0
LINE
  5
282
330
1F
100
AcDbEntity
  8
1
  6
Continuous
 62
     7
370
     9
100
AcDbLine
 10
907.3196734059106
 20
126.3600311041991
 30
0.0
 11
907.3196734059106
 21
85.36003110419907
 31
0.0
  0
LINE
  5
283
330
1F
100
AcDbEntity
  8
1
  6
Continuous
 62
     7
370
     9
100
AcDbLine
 10
971.3196734059106
 20
126.3600311041991
 30
0.0
 11
971.3196734059106
 21
85.36003110419907
 31
0.0
  0
LINE
  5
284
330
1F
100
AcDbEntity
  8
1
  6
Continuous
 62
     7
370
     9
100
AcDbLine
 10
970.8577931905589
 20
86.16003110419908
 30
0.0
 11
971.3196734059106
 21
85.36003110419907
 31
0.0
  0
LINE
  5
285
330
1F
100
AcDbEntity
  8
1
  6
Continuous
 62
     7
370
     9
100
AcDbLine
 10
971.3196734059106
 20
126.3600311041991
 30
0.0
 11
976.3196734059106
 21
126.3600311041991
 31
0.0
  0
LINE
  5
286
330
1F
100
AcDbEntity
  8
1
  6
Continuous
 62
     7
370
     9
100
AcDbLine
 10
971.3196734059106
 20
85.36003110419907
 30
0.0
 11
976.3196734059106
 21
85.36003110419907
 31
0.0
  0
LINE
  5
287
330
1F
100
AcDbEntity
  8
1
  6
Continuous
 62
     7
370
     9
100
AcDbLine
 10
977.3196734059106
 20
125.3600311041991
 30
0.0
 11
977.3196734059106
 21
86.36003110419907
 31
0.0
  0
LINE
  5
288
330
1F
100
AcDbEntity
  8
1
  6
Continuous
 62
     7
370
     9
100
AcDbLine
 10
970.8577931905589
 20
125.5600311041991
 30
0.0
 11
971.3196734059106
 21
126.3600311041991
 31
0.0
  0
LINE
  5
289
330
1F
100
AcDbEntity
  8
1
  6
Continuous
 62
     7
370
     9
100
AcDbLine
 10
907.7815536212623
 20
125.5600311041991
 30
0.0
 11
907.7815536212623
 21
86.16003110419908
 31
0.0
  0
LINE
  5
28A
330
1F
100
AcDbEntity
  8
1
  6
Continuous
 62
     7
370
     9
100
AcDbLine
 10
944.9906521574138
 20
125.5600311041991
 30
0.0
 11
970.8577931905589
 21
125.5600311041991
 31
0.0
  0
ARC
  5
28B
330
1F
100
AcDbEntity
  8
1
  6
Continuous
 62
     7
370
     9
100
AcDbCircle
 10
902.3196734059106
 20
86.36003110419907
 30
0.0
 40
1.0
100
AcDbArc
 50
179.9999999999998
 51
269.9999999999998
  0
ARC
  5
28C
330
1F
100
AcDbEntity
  8
1
  6
Continuous
 62
     7
370
     9
100
AcDbCircle
 10
902.3196734059106
 20
125.3600311041991
 30
0.0
 40
1.0
100
AcDbArc
 50
89.99999999999991
 51
179.9999999999998
  0
ARC
  5
28D
330
1F
100
AcDbEntity
  8
1
  6
Continuous
 62
     7
370
     9
100
AcDbCircle
 10
976.3196734059106
 20
86.36003110419907
 30
0.0
 40
1.0
100
AcDbArc
 50
269.9999999999998
 51
0.0
  0
ARC
  5
28E
330
1F
100
AcDbEntity
  8
1
  6
Continuous
 62
     7
370
     9
100
AcDbCircle
 10
976.3196734059106
 20
125.3600311041991
 30
0.0
 40
1.0
100
AcDbArc
 50
0.0
 51
89.99999999999991
  0
CIRCLE
  5
28F
330
1F
100
AcDbEntity
  8
1
  6
Continuous
 62
     7
370
     9
100
AcDbCircle
 10
939.3196734059106
 20
105.8600311041991
 30
0.0
 40
15.08406451612903
  0
CIRCLE
  5
290
330
1F
100
AcDbEntity
  8
1
  6
Continuous
 62
     7
370
     9
100
AcDbCircle
 10
939.3196734059106
 20
105.8600311041991
 30
0.0
 40
16.61077419354839
  0
CIRCLE
  5
291
330
1F
100
AcDbEntity
  8
1
  6
Continuous
 62
     7
370
     9
100
AcDbCircle
 10
939.3196734059106
 20
105.8600311041991
 30
0.0
 40
20.5
  0
CIRCLE
  5
292
330
1F
100
AcDbEntity
  8
1
  6
Continuous
 62
     7
370
     9
100
AcDbCircle
 10
939.3196734059106
 20
105.8600311041991
 30
0.0
 40
17.05
  0
LINE
  5
293
330
1F
100
AcDbEntity
  8
1
  6
Continuous
 62
     7
370
     9
100
AcDbLine
 10
970.8577931905589
 20
204.0600311041991
 30
0.0
 11
971.3196734059106
 21
204.8600311041991
 31
0.0
  0
LINE
  5
294
330
1F
100
AcDbEntity
  8
1
  6
Continuous
 62
     7
370
     9
100
AcDbLine
 10
977.3196734059106
 20
203.8600311041991
 30
0.0
 11
977.3196734059106
 21
164.8600311041991
 31
0.0
  0
LINE
  5
295
330
1F
100
AcDbEntity
  8
1
  6
Continuous
 62
     7
370
     9
100
AcDbLine
 10
919.8196734059106
 20
146.3600311041991
 30
0.0
 11
958.8196734059106
 21
146.3600311041991
 31
0.0
  0
LINE
  5
296
330
1F
100
AcDbEntity
  8
1
  6
Continuous
 62
     7
370
     9
100
AcDbLine
 10
971.3196734059106
 20
163.8600311041991
 30
0.0
 11
976.3196734059106
 21
163.8600311041991
 31
0.0
  0
LINE
  5
297
330
1F
100
AcDbEntity
  8
1
  6
Continuous
 62
     7
370
     9
100
AcDbLine
 10
918.8196734059106
 20
152.3600311041991
 30
0.0
 11
918.8196734059106
 21
147.3600311041991
 31
0.0
  0
LINE
  5
298
330
1F
100
AcDbEntity
  8
1
  6
Continuous
 62
     7
370
     9
100
AcDbLine
 10
919.6196734059106
 20
152.8219113195508
 30
0.0
 11
918.8196734059106
 21
152.3600311041991
 31
0.0
  0
LINE
  5
299
330
1F
100
AcDbEntity
  8
1
  6
Continuous
 62
     7
370
     9
100
AcDbLine
 10
959.8196734059106
 20
152.3600311041991
 30
0.0
 11
959.8196734059106
 21
147.3600311041991
 31
0.0
  0
LINE
  5
29A
330
1F
100
AcDbEntity
  8
1
  6
Continuous
 62
     7
370
     9
100
AcDbLine
 10
971.3196734059106
 20
204.8600311041991
 30
0.0
 11
976.3196734059106
 21
204.8600311041991
 31
0.0
  0
LINE
  5
29B
330
1F
100
AcDbEntity
  8
1
  6
Continuous
 62
     7
370
     9
100
AcDbLine
 10
970.8577931905589
 20
164.660031104199
 30
0.0
 11
971.3196734059106
 21
163.8600311041991
 31
0.0
  0
LINE
  5
29C
330
1F
100
AcDbEntity
  8
1
  6
Continuous
 62
     7
370
     9
100
AcDbLine
 10
959.0196734059107
 20
152.8219113195509
 30
0.0
 11
959.8196734059107
 21
152.3600311041992
 31
0.0
  0
LINE
  5
29D
330
1F
100
AcDbEntity
  8
1
  6
Continuous
 62
     7
370
     9
100
AcDbLine
 10
919.6196734059106
 20
160.6600311041991
 30
0.0
 11
919.6196734059106
 21
152.8219113195508
 31
0.0
  0
LINE
  5
29E
330
1F
100
AcDbEntity
  8
1
  6
Continuous
 62
     7
370
     9
100
AcDbLine
 10
907.7815536212623
 20
204.0600311041991
 30
0.0
 11
970.8577931905589
 21
204.0600311041991
 31
0.0
  0
LINE
  5
29F
330
1F
100
AcDbEntity
  8
1
  6
Continuous
 62
     7
370
     9
100
AcDbLine
 10
963.0196734059107
 20
164.6600311041991
 30
0.0
 11
970.8577931905589
 21
164.6600311041991
 31
0.0
  0
LINE
  5
2A0
330
1F
100
AcDbEntity
  8
1
  6
Continuous
 62
     7
370
     9
100
AcDbLine
 10
959.0196734059107
 20
160.6600311041991
 30
0.0
 11
959.0196734059107
 21
152.8219113195509
 31
0.0
  0
LINE
  5
2A1
330
1F
100
AcDbEntity
  8
1
  6
Continuous
 62
     7
370
     9
100
AcDbLine
 10
907.7815536212623
 20
204.0600311041991
 30
0.0
 11
907.3196734059106
 21
204.8600311041991
 31
0.0
  0
LINE
  5
2A2
330
1F
100
AcDbEntity
  8
1
  6
Continuous
 62
     7
370
     9
100
AcDbLine
 10
901.3196734059106
 20
203.8600311041991
 30
0.0
 11
901.3196734059106
 21
164.8600311041991
 31
0.0
  0
LINE
  5
2A3
330
1F
100
AcDbEntity
  8
1
  6
Continuous
 62
     7
370
     9
100
AcDbLine
 10
907.3196734059106
 20
163.8600311041991
 30
0.0
 11
902.3196734059106
 21
163.8600311041991
 31
0.0
  0
LINE
  5
2A4
330
1F
100
AcDbEntity
  8
1
  6
Continuous
 62
     7
370
     9
100
AcDbLine
 10
907.3196734059106
 20
204.8600311041991
 30
0.0
 11
902.3196734059106
 21
204.8600311041991
 31
0.0
  0
LINE
  5
2A5
330
1F
100
AcDbEntity
  8
1
  6
Continuous
 62
     7
370
     9
100
AcDbLine
 10
907.7815536212623
 20
164.6600311041991
 30
0.0
 11
907.3196734059106
 21
163.8600311041991
 31
0.0
  0
LINE
  5
2A6
330
1F
100
AcDbEntity
  8
1
  6
Continuous
 62
     7
370
     9
100
AcDbLine
 10
915.6196734059106
 20
164.6600311041991
 30
0.0
 11
907.7815536212623
 21
164.6600311041991
 31
0.0
  0
LINE
  5
2A7
330
1F
100
AcDbEntity
  8
1
  6
Continuous
 62
     7
370
     9
100
AcDbLine
 10
918.8196734059106
 20
152.3600311041992
 30
0.0
 11
959.8196734059106
 21
152.3600311041992
 31
0.0
  0
LINE
  5
2A8
330
1F
100
AcDbEntity
  8
1
  6
Continuous
 62
     7
370
     9
100
AcDbLine
 10
919.6196734059106
 20
152.8219113195509
 30
0.0
 11
959.0196734059107
 21
152.8219113195509
 31
0.0
  0
LINE
  5
2A9
330
1F
100
AcDbEntity
  8
1
  6
Continuous
 62
     7
370
     9
100
AcDbLine
 10
971.3196734059106
 20
204.8600311041991
 30
0.0
 11
971.3196734059106
 21
163.8600311041991
 31
0.0
  0
LINE
  5
2AA
330
1F
100
AcDbEntity
  8
1
  6
Continuous
 62
     7
370
     9
100
AcDbLine
 10
970.8577931905589
 20
204.0600311041991
 30
0.0
 11
970.8577931905589
 21
164.6600311041991
 31
0.0
  0
LINE
  5
2AB
330
1F
100
AcDbEntity
  8
1
  6
Continuous
 62
     7
370
     9
100
AcDbLine
 10
907.7815536212623
 20
204.0600311041991
 30
0.0
 11
907.7815536212623
 21
164.6600311041991
 31
0.0
  0
LINE
  5
2AC
330
1F
100
AcDbEntity
  8
1
  6
Continuous
 62
     7
370
     9
100
AcDbLine
 10
907.3196734059106
 20
204.8600311041991
 30
0.0
 11
907.3196734059106
 21
163.8600311041991
 31
0.0
  0
LINE
  5
2AD
330
1F
100
AcDbEntity
  8
1
  6
Continuous
 62
     7
370
     9
100
AcDbLine
 10
919.6196734059106
 20
164.6600311041991
 30
0.0
 11
938.2590132341309
 21
183.2993709324192
 31
0.0
  0
LINE
  5
2AE
330
1F
100
AcDbEntity
  8
1
  6
Continuous
 62
     7
370
     9
100
AcDbLine
 10
959.0196734059107
 20
164.6600311041991
 30
0.0
 11
940.3803335776905
 21
183.2993709324192
 31
0.0
  0
ARC
  5
2AF
330
1F
100
AcDbEntity
  8
1
  6
Continuous
 62
     7
370
     9
100
AcDbCircle
 10
976.3196734059106
 20
203.8600311041991
 30
0.0
 40
1.0
100
AcDbArc
 50
0.0
 51
89.99999999999991
  0
ARC
  5
2B0
330
1F
100
AcDbEntity
  8
1
  6
Continuous
 62
     7
370
     9
100
AcDbCircle
 10
963.0196734059107
 20
160.6600311041991
 30
0.0
 40
4.0
100
AcDbArc
 50
89.99999999999991
 51
180.0000000000004
  0
ARC
  5
2B1
330
1F
100
AcDbEntity
  8
1
  6
Continuous
 62
     7
370
     9
100
AcDbCircle
 10
976.3196734059106
 20
164.8600311041991
 30
0.0
 40
1.0
100
AcDbArc
 50
269.9999999999998
 51
0.0
  0
ARC
  5
2B2
330
1F
100
AcDbEntity
  8
1
  6
Continuous
 62
     7
370
     9
100
AcDbCircle
 10
958.8196734059106
 20
147.3600311041991
 30
0.0
 40
1.0
100
AcDbArc
 50
269.9999999999998
 51
0.0
  0
ARC
  5
2B3
330
1F
100
AcDbEntity
  8
1
  6
Continuous
 62
     7
370
     9
100
AcDbCircle
 10
919.8196734059106
 20
147.3600311041991
 30
0.0
 40
1.0
100
AcDbArc
 50
179.9999999999998
 51
269.9999999999998
  0
ARC
  5
2B4
330
1F
100
AcDbEntity
  8
1
  6
Continuous
 62
     7
370
     9
100
AcDbCircle
 10
902.3196734059106
 20
203.8600311041991
 30
0.0
 40
1.0
100
AcDbArc
 50
89.99999999999991
 51
179.9999999999998
  0
ARC
  5
2B5
330
1F
100
AcDbEntity
  8
1
  6
Continuous
 62
     7
370
     9
100
AcDbCircle
 10
915.6196734059106
 20
160.6600311041991
 30
0.0
 40
4.0
100
AcDbArc
 50
0.0
 51
89.99999999999991
  0
ARC
  5
2B6
330
1F
100
AcDbEntity
  8
1
  6
Continuous
 62
     7
370
     9
100
AcDbCircle
 10
902.3196734059106
 20
164.8600311041991
 30
0.0
 40
1.0
100
AcDbArc
 50
179.9999999999998
 51
269.9999999999998
  0
LINE
  5
2B7
330
1F
100
AcDbEntity
  8
1
  6
Continuous
 62
     7
370
     9
100
AcDbLine
 10
998.1196734059107
 20
152.8219113195508
 30
0.0
 11
1037.519673405911
 21
152.8219113195507
 31
0.0
  0
LINE
  5
2B8
330
1F
100
AcDbEntity
  8
1
  6
Continuous
 62
     7
370
     9
100
AcDbLine
 10
997.3196734059106
 20
152.3600311041991
 30
0.0
 11
997.3196734059106
 21
147.3600311041991
 31
0.0
  0
LINE
  5
2B9
330
1F
100
AcDbEntity
  8
1
  6
Continuous
 62
     7
370
     9
100
AcDbLine
 10
997.3196734059106
 20
152.3600311041991
 30
0.0
 11
1038.319673405911
 21
152.360031104199
 31
0.0
  0
LINE
  5
2BA
330
1F
100
AcDbEntity
  8
1
  6
Continuous
 62
     7
370
     9
100
AcDbLine
 10
998.5696734059106
 20
146.3600311041985
 30
0.0
 11
1037.069673405911
 21
146.3600311041984
 31
0.0
  0
LINE
  5
2BB
330
1F
100
AcDbEntity
  8
1
  6
Continuous
 62
     7
370
     9
100
AcDbLine
 10
1037.519673405911
 20
178.6890523526959
 30
0.0
 11
1037.519673405911
 21
152.8219113195508
 31
0.0
  0
LINE
  5
2BC
330
1F
100
AcDbEntity
  8
1
  6
Continuous
 62
     7
370
     9
100
AcDbLine
 10
998.1196734059107
 20
152.8219113195509
 30
0.0
 11
997.3196734059106
 21
152.3600311041991
 31
0.0
  0
LINE
  5
2BD
330
1F
100
AcDbEntity
  8
1
  6
Continuous
 62
     7
370
     9
100
AcDbLine
 10
1038.319673405911
 20
152.3600311041991
 30
0.0
 11
1038.319673405911
 21
147.3600311041991
 31
0.0
  0
LINE
  5
2BE
330
1F
100
AcDbEntity
  8
1
  6
Continuous
 62
     7
370
     9
100
AcDbLine
 10
1037.519673405911
 20
152.8219113195508
 30
0.0
 11
1038.319673405911
 21
152.3600311041991
 31
0.0
  0
LINE
  5
2BF
330
1F
100
AcDbEntity
  8
1
  6
Continuous
 62
     7
370
     9
100
AcDbLine
 10
998.1196734059107
 20
178.6890523526959
 30
0.0
 11
998.1196734059107
 21
152.8219113195508
 31
0.0
  0
CIRCLE
  5
2C0
330
1F
100
AcDbEntity
  8
1
  6
Continuous
 62
     7
370
     9
100
AcDbCircle
 10
1017.819673405911
 20
184.3600311041991
 30
0.0
 40
17.05000000000001
  0
ARC
  5
2C1
330
1F
100
AcDbEntity
  8
1
  6
Continuous
 62
     7
370
     9
100
AcDbCircle
 10
998.3196734059106
 20
147.3600311041991
 30
0.0
 40
1.0
100
AcDbArc
 50
179.9999999999998
 51
269.9999999999998
  0
ARC
  5
2C2
330
1F
100
AcDbEntity
  8
1
  6
Continuous
 62
     7
370
     9
100
AcDbCircle
 10
1037.319673405911
 20
147.3600311041991
 30
0.0
 40
1.0
100
AcDbArc
 50
269.9999999999998
 51
0.0
  0
CIRCLE
  5
2C3
330
1F
100
AcDbEntity
  8
1
  6
Continuous
 62
     7
370
     9
100
AcDbCircle
 10
1017.819673405911
 20
184.3600311041991
 30
0.0
 40
20.5
  0
CIRCLE
  5
2C4
330
1F
100
AcDbEntity
  8
1
  6
Continuous
 62
     7
370
     9
100
AcDbCircle
 10
1017.819673405911
 20
184.3600311041991
 30
0.0
 40
16.61077419354839
  0
CIRCLE
  5
2C5
330
1F
100
AcDbEntity
  8
1
  6
Continuous
 62
     7
370
     9
100
AcDbCircle
 10
1017.819673405911
 20
184.3600311041991
 30
0.0
 40
15.08406451612902
  0
MTEXT
  5
2C6
330
1F
100
AcDbEntity
  8
1
  6
Continuous
 62
     7
370
     9
100
AcDbMText
 10
977.3196734059106
 20
45.86003110419907
 30
0.0
 40
25.0
 41
61.28103103103103
 46
25.0
 71
     8
 72
     1
  1
{\fＭＳ 明朝;\T0.750000;25A}
 73
     1
 44
1.0
1001
ACAD
1000
ACAD_MTEXT_DEFINED_HEIGHT_BEGIN
1070
    46
1040
25.0
1000
ACAD_MTEXT_DEFINED_HEIGHT_END
  0
LINE
  5
2C7
330
1F
100
AcDbEntity
  8
1
  6
Continuous
 62
     7
370
     9
100
AcDbLine
 10
117.4325214525781
 20
319.8224128250607
 30
0.0
 11
117.4325214525781
 21
368.8224128250607
 31
0.0
  0
LINE
  5
2C8
330
1F
100
AcDbEntity
  8
1
  6
Continuous
 62
     7
370
     9
100
AcDbLine
 10
118.4325214525781
 20
318.8224128250607
 30
0.0
 11
118.4325214525781
 21
369.8224128250607
 31
0.0
  0
LINE
  5
2C9
330
1F
100
AcDbEntity
  8
1
  6
Continuous
 62
     7
370
     9
100
AcDbLine
 10
40.43252145257806
 20
318.8224128250607
 30
0.0
 11
35.43252145257806
 21
318.8224128250607
 31
0.0
  0
LINE
  5
2CA
330
1F
100
AcDbEntity
  8
1
  6
Continuous
 62
     7
370
     9
100
AcDbLine
 10
40.43252145257806
 20
318.8224128250607
 30
0.0
 11
41.43252145257806
 21
319.8224128250607
 31
0.0
  0
LINE
  5
2CB
330
1F
100
AcDbEntity
  8
1
  6
Continuous
 62
     7
370
     9
100
AcDbLine
 10
33.43252145257806
 20
320.8224128250607
 30
0.0
 11
33.43252145257806
 21
367.8224128250607
 31
0.0
  0
LINE
  5
2CC
330
1F
100
AcDbEntity
  8
1
  6
Continuous
 62
     7
370
     9
100
AcDbLine
 10
41.432521452578
 20
368.8224128250607
 30
0.0
 11
40.43252145257806
 21
369.8224128250607
 31
0.0
  0
LINE
  5
2CD
330
1F
100
AcDbEntity
  8
1
  6
Continuous
 62
     7
370
     9
100
AcDbLine
 10
72.36145364071258
 20
319.8224128250607
 30
0.0
 11
41.43252145257806
 21
319.8224128250607
 31
0.0
  0
LINE
  5
2CE
330
1F
100
AcDbEntity
  8
1
  6
Continuous
 62
     7
370
     9
100
AcDbLine
 10
40.43252145257806
 20
369.8224128250607
 30
0.0
 11
35.43252145257806
 21
369.8224128250607
 31
0.0
  0
LINE
  5
2CF
330
1F
100
AcDbEntity
  8
1
  6
Continuous
 62
     7
370
     9
100
AcDbLine
 10
41.43252145257806
 20
319.8224128250607
 30
0.0
 11
41.43252145257806
 21
368.8224128250607
 31
0.0
  0
LINE
  5
2D0
330
1F
100
AcDbEntity
  8
1
  6
Continuous
 62
     7
370
     9
100
AcDbLine
 10
40.43252145257806
 20
318.8224128250607
 30
0.0
 11
40.43252145257806
 21
369.8224128250607
 31
0.0
  0
LINE
  5
2D1
330
1F
100
AcDbEntity
  8
1
  6
Continuous
 62
     7
370
     9
100
AcDbLine
 10
41.43252145257806
 20
368.8224128250607
 30
0.0
 11
72.36145364071258
 21
368.8224128250607
 31
0.0
  0
LINE
  5
2D2
330
1F
100
AcDbEntity
  8
1
  6
Continuous
 62
     7
370
     9
100
AcDbLine
 10
118.4325214525781
 20
318.8224128250607
 30
0.0
 11
117.4325214525781
 21
319.8224128250607
 31
0.0
  0
LINE
  5
2D3
330
1F
100
AcDbEntity
  8
1
  6
Continuous
 62
     7
370
     9
100
AcDbLine
 10
86.50358926444353
 20
319.8224128250607
 30
0.0
 11
117.4325214525781
 21
319.8224128250607
 31
0.0
  0
LINE
  5
2D4
330
1F
100
AcDbEntity
  8
1
  6
Continuous
 62
     7
370
     9
100
AcDbLine
 10
117.4325214525781
 20
368.8224128250607
 30
0.0
 11
118.4325214525781
 21
369.8224128250607
 31
0.0
  0
LINE
  5
2D5
330
1F
100
AcDbEntity
  8
1
  6
Continuous
 62
     7
370
     9
100
AcDbLine
 10
125.4325214525781
 20
320.8224128250607
 30
0.0
 11
125.4325214525781
 21
367.8224128250607
 31
0.0
  0
LINE
  5
2D6
330
1F
100
AcDbEntity
  8
1
  6
Continuous
 62
     7
370
     9
100
AcDbLine
 10
118.4325214525781
 20
318.8224128250607
 30
0.0
 11
123.4325214525781
 21
318.8224128250607
 31
0.0
  0
LINE
  5
2D7
330
1F
100
AcDbEntity
  8
1
  6
Continuous
 62
     7
370
     9
100
AcDbLine
 10
118.4325214525781
 20
369.8224128250607
 30
0.0
 11
123.4325214525781
 21
369.8224128250607
 31
0.0
  0
LINE
  5
2D8
330
1F
100
AcDbEntity
  8
1
  6
Continuous
 62
     7
370
     9
100
AcDbLine
 10
86.50358926444353
 20
368.8224128250607
 30
0.0
 11
117.4325214525781
 21
368.8224128250607
 31
0.0
  0
CIRCLE
  5
2D9
330
1F
100
AcDbEntity
  8
1
  6
Continuous
 62
     7
370
     9
100
AcDbCircle
 10
79.43252145257806
 20
344.3224128250607
 30
0.0
 40
25.5
  0
CIRCLE
  5
2DA
330
1F
100
AcDbEntity
  8
1
  6
Continuous
 62
     7
370
     9
100
AcDbCircle
 10
79.43252145257806
 20
344.3224128250607
 30
0.0
 40
21.4
  0
CIRCLE
  5
2DB
330
1F
100
AcDbEntity
  8
1
  6
Continuous
 62
     7
370
     9
100
AcDbCircle
 10
79.43252145257806
 20
344.3224128250607
 30
0.0
 40
19.41393228216761
  0
CIRCLE
  5
2DC
330
1F
100
AcDbEntity
  8
1
  6
Continuous
 62
     7
370
     9
100
AcDbCircle
 10
79.43252145257806
 20
344.3224128250607
 30
0.0
 40
18.93739072175811
  0
ARC
  5
2DD
330
1F
100
AcDbEntity
  8
1
  6
Continuous
 62
     7
370
     9
100
AcDbCircle
 10
35.43252145257806
 20
320.8224128250607
 30
0.0
 40
2.0
100
AcDbArc
 50
180.0000000000013
 51
269.9999999999998
  0
ARC
  5
2DE
330
1F
100
AcDbEntity
  8
1
  6
Continuous
 62
     7
370
     9
100
AcDbCircle
 10
35.43252145257806
 20
367.8224128250607
 30
0.0
 40
2.0
100
AcDbArc
 50
89.99999999999991
 51
179.9999999999998
  0
ARC
  5
2DF
330
1F
100
AcDbEntity
  8
1
  6
Continuous
 62
     7
370
     9
100
AcDbCircle
 10
123.4325214525781
 20
367.8224128250607
 30
0.0
 40
2.0
100
AcDbArc
 50
0.0
 51
89.99999999999991
  0
ARC
  5
2E0
330
1F
100
AcDbEntity
  8
1
  6
Continuous
 62
     7
370
     9
100
AcDbCircle
 10
123.4325214525781
 20
320.8224128250607
 30
0.0
 40
2.0
100
AcDbArc
 50
269.9999999999998
 51
0.0
  0
LINE
  5
2E1
330
1F
100
AcDbEntity
  8
1
  6
Continuous
 62
     7
370
     9
100
AcDbLine
 10
118.4325214525781
 20
461.3224128250607
 30
0.0
 11
123.4325214525781
 21
461.3224128250607
 31
0.0
  0
LINE
  5
2E2
330
1F
100
AcDbEntity
  8
1
  6
Continuous
 62
     7
370
     9
100
AcDbLine
 10
118.4325214525781
 20
410.3224128250607
 30
0.0
 11
123.4325214525781
 21
410.3224128250607
 31
0.0
  0
LINE
  5
2E3
330
1F
100
AcDbEntity
  8
1
  6
Continuous
 62
     7
370
     9
100
AcDbLine
 10
125.4325214525781
 20
412.3224128250607
 30
0.0
 11
125.4325214525781
 21
459.3224128250607
 31
0.0
  0
LINE
  5
2E4
330
1F
100
AcDbEntity
  8
1
  6
Continuous
 62
     7
370
     9
100
AcDbLine
 10
117.4325214525781
 20
460.3224128250607
 30
0.0
 11
118.4325214525781
 21
461.3224128250607
 31
0.0
  0
LINE
  5
2E5
330
1F
100
AcDbEntity
  8
1
  6
Continuous
 62
     7
370
     9
100
AcDbLine
 10
109.9325214525781
 20
411.3224128250607
 30
0.0
 11
117.4325214525781
 21
411.3224128250607
 31
0.0
  0
LINE
  5
2E6
330
1F
100
AcDbEntity
  8
1
  6
Continuous
 62
     7
370
     9
100
AcDbLine
 10
118.4325214525781
 20
410.3224128250607
 30
0.0
 11
117.4325214525781
 21
411.3224128250607
 31
0.0
  0
LINE
  5
2E7
330
1F
100
AcDbEntity
  8
1
  6
Continuous
 62
     7
370
     9
100
AcDbLine
 10
103.9325214525781
 20
405.3224128250607
 30
0.0
 11
103.9325214525781
 21
397.8224128250607
 31
0.0
  0
LINE
  5
2E8
330
1F
100
AcDbEntity
  8
1
  6
Continuous
 62
     7
370
     9
100
AcDbLine
 10
41.43252145257806
 20
460.3224128250607
 30
0.0
 11
117.4325214525781
 21
460.3224128250607
 31
0.0
  0
LINE
  5
2E9
330
1F
100
AcDbEntity
  8
1
  6
Continuous
 62
     7
370
     9
100
AcDbLine
 10
53.93252145257806
 20
396.8224128250607
 30
0.0
 11
54.93252145257806
 21
397.8224128250607
 31
0.0
  0
LINE
  5
2EA
330
1F
100
AcDbEntity
  8
1
  6
Continuous
 62
     7
370
     9
100
AcDbLine
 10
54.93252145257806
 20
405.3224128250607
 30
0.0
 11
54.93252145257806
 21
397.8224128250607
 31
0.0
  0
LINE
  5
2EB
330
1F
100
AcDbEntity
  8
1
  6
Continuous
 62
     7
370
     9
100
AcDbLine
 10
103.9325214525781
 20
397.8224128250607
 30
0.0
 11
104.9325214525781
 21
396.8224128250607
 31
0.0
  0
LINE
  5
2EC
330
1F
100
AcDbEntity
  8
1
  6
Continuous
 62
     7
370
     9
100
AcDbLine
 10
104.9325214525781
 20
396.8224128250607
 30
0.0
 11
104.9325214525781
 21
391.8224128250607
 31
0.0
  0
LINE
  5
2ED
330
1F
100
AcDbEntity
  8
1
  6
Continuous
 62
     7
370
     9
100
AcDbLine
 10
55.93252145257806
 20
389.8224128250607
 30
0.0
 11
102.9325214525781
 21
389.8224128250607
 31
0.0
  0
LINE
  5
2EE
330
1F
100
AcDbEntity
  8
1
  6
Continuous
 62
     7
370
     9
100
AcDbLine
 10
53.93252145257806
 20
396.8224128250607
 30
0.0
 11
53.93252145257806
 21
391.8224128250607
 31
0.0
  0
LINE
  5
2EF
330
1F
100
AcDbEntity
  8
1
  6
Continuous
 62
     7
370
     9
100
AcDbLine
 10
40.43252145257806
 20
461.3224128250607
 30
0.0
 11
35.43252145257806
 21
461.3224128250607
 31
0.0
  0
LINE
  5
2F0
330
1F
100
AcDbEntity
  8
1
  6
Continuous
 62
     7
370
     9
100
AcDbLine
 10
48.93252145257806
 20
411.3224128250607
 30
0.0
 11
41.43252145257806
 21
411.3224128250607
 31
0.0
  0
LINE
  5
2F1
330
1F
100
AcDbEntity
  8
1
  6
Continuous
 62
     7
370
     9
100
AcDbLine
 10
41.43252145257806
 20
460.3224128250607
 30
0.0
 11
40.43252145257806
 21
461.3224128250607
 31
0.0
  0
LINE
  5
2F2
330
1F
100
AcDbEntity
  8
1
  6
Continuous
 62
     7
370
     9
100
AcDbLine
 10
33.43252145257806
 20
412.3224128250607
 30
0.0
 11
33.43252145257806
 21
459.3224128250607
 31
0.0
  0
LINE
  5
2F3
330
1F
100
AcDbEntity
  8
1
  6
Continuous
 62
     7
370
     9
100
AcDbLine
 10
40.43252145257806
 20
410.3224128250607
 30
0.0
 11
41.43252145257806
 21
411.3224128250607
 31
0.0
  0
LINE
  5
2F4
330
1F
100
AcDbEntity
  8
1
  6
Continuous
 62
     7
370
     9
100
AcDbLine
 10
40.43252145257806
 20
410.3224128250607
 30
0.0
 11
35.43252145257806
 21
410.3224128250607
 31
0.0
  0
LINE
  5
2F5
330
1F
100
AcDbEntity
  8
1
  6
Continuous
 62
     7
370
     9
100
AcDbLine
 10
53.93252145257806
 20
396.8224128250607
 30
0.0
 11
104.9325214525781
 21
396.8224128250607
 31
0.0
  0
LINE
  5
2F6
330
1F
100
AcDbEntity
  8
1
  6
Continuous
 62
     7
370
     9
100
AcDbLine
 10
54.93252145257806
 20
397.8224128250607
 30
0.0
 11
103.9325214525781
 21
397.8224128250607
 31
0.0
  0
LINE
  5
2F7
330
1F
100
AcDbEntity
  8
1
  6
Continuous
 62
     7
370
     9
100
AcDbLine
 10
118.4325214525781
 20
410.3224128250607
 30
0.0
 11
118.4325214525781
 21
461.3224128250607
 31
0.0
  0
LINE
  5
2F8
330
1F
100
AcDbEntity
  8
1
  6
Continuous
 62
     7
370
     9
100
AcDbLine
 10
117.4325214525781
 20
411.3224128250607
 30
0.0
 11
117.4325214525781
 21
460.3224128250607
 31
0.0
  0
LINE
  5
2F9
330
1F
100
AcDbEntity
  8
1
  6
Continuous
 62
     7
370
     9
100
AcDbLine
 10
41.43252145257806
 20
411.3224128250607
 30
0.0
 11
41.43252145257806
 21
460.3224128250607
 31
0.0
  0
LINE
  5
2FA
330
1F
100
AcDbEntity
  8
1
  6
Continuous
 62
     7
370
     9
100
AcDbLine
 10
40.43252145257806
 20
410.3224128250607
 30
0.0
 11
40.43252145257806
 21
461.3224128250607
 31
0.0
  0
LINE
  5
2FB
330
1F
100
AcDbEntity
  8
1
  6
Continuous
 62
     7
370
     9
100
AcDbLine
 10
54.93252145257806
 20
411.3224128250607
 30
0.0
 11
78.01830789020495
 21
434.4081992626876
 31
0.0
  0
LINE
  5
2FC
330
1F
100
AcDbEntity
  8
1
  6
Continuous
 62
     7
370
     9
100
AcDbLine
 10
103.9325214525781
 20
411.3224128250607
 30
0.0
 11
80.84673501495116
 21
434.4081992626876
 31
0.0
  0
ARC
  5
2FD
330
1F
100
AcDbEntity
  8
1
  6
Continuous
 62
     7
370
     9
100
AcDbCircle
 10
48.93252145257806
 20
405.3224128250607
 30
0.0
 40
6.0
100
AcDbArc
 50
0.0
 51
89.99999999999991
  0
ARC
  5
2FE
330
1F
100
AcDbEntity
  8
1
  6
Continuous
 62
     7
370
     9
100
AcDbCircle
 10
55.93252145257806
 20
391.8224128250607
 30
0.0
 40
2.0
100
AcDbArc
 50
180.0000000000013
 51
269.9999999999998
  0
ARC
  5
2FF
330
1F
100
AcDbEntity
  8
1
  6
Continuous
 62
     7
370
     9
100
AcDbCircle
 10
102.9325214525781
 20
391.8224128250607
 30
0.0
 40
2.0
100
AcDbArc
 50
269.9999999999998
 51
0.0
  0
ARC
  5
300
330
1F
100
AcDbEntity
  8
1
  6
Continuous
 62
     7
370
     9
100
AcDbCircle
 10
123.4325214525781
 20
412.3224128250607
 30
0.0
 40
2.0
100
AcDbArc
 50
269.9999999999998
 51
0.0
  0
ARC
  5
301
330
1F
100
AcDbEntity
  8
1
  6
Continuous
 62
     7
370
     9
100
AcDbCircle
 10
123.4325214525781
 20
459.3224128250607
 30
0.0
 40
2.0
100
AcDbArc
 50
0.0
 51
89.99999999999991
  0
ARC
  5
302
330
1F
100
AcDbEntity
  8
1
  6
Continuous
 62
     7
370
     9
100
AcDbCircle
 10
109.9325214525781
 20
405.3224128250607
 30
0.0
 40
6.0
100
AcDbArc
 50
89.99999999999991
 51
180.0000000000002
  0
ARC
  5
303
330
1F
100
AcDbEntity
  8
1
  6
Continuous
 62
     7
370
     9
100
AcDbCircle
 10
35.43252145257806
 20
459.3224128250607
 30
0.0
 40
2.0
100
AcDbArc
 50
89.99999999999991
 51
179.9999999999998
  0
ARC
  5
304
330
1F
100
AcDbEntity
  8
1
  6
Continuous
 62
     7
370
     9
100
AcDbCircle
 10
35.43252145257806
 20
412.3224128250607
 30
0.0
 40
2.0
100
AcDbArc
 50
180.0000000000013
 51
269.9999999999998
  0
LINE
  5
305
330
1F
100
AcDbEntity
  8
1
  6
Continuous
 62
     7
370
     9
100
AcDbLine
 10
145.432521452578
 20
396.8224128250607
 30
0.0
 11
146.432521452578
 21
397.8224128250607
 31
0.0
  0
LINE
  5
306
330
1F
100
AcDbEntity
  8
1
  6
Continuous
 62
     7
370
     9
100
AcDbLine
 10
195.4325214525781
 20
397.8224128250607
 30
0.0
 11
196.4325214525781
 21
396.8224128250607
 31
0.0
  0
LINE
  5
307
330
1F
100
AcDbEntity
  8
1
  6
Continuous
 62
     7
370
     9
100
AcDbLine
 10
196.4325214525781
 20
396.8224128250607
 30
0.0
 11
196.4325214525781
 21
391.8224128250607
 31
0.0
  0
LINE
  5
308
330
1F
100
AcDbEntity
  8
1
  6
Continuous
 62
     7
370
     9
100
AcDbLine
 10
147.432521452578
 20
389.8224128250607
 30
0.0
 11
194.4325214525781
 21
389.8224128250607
 31
0.0
  0
LINE
  5
309
330
1F
100
AcDbEntity
  8
1
  6
Continuous
 62
     7
370
     9
100
AcDbLine
 10
145.432521452578
 20
396.8224128250607
 30
0.0
 11
145.432521452578
 21
391.8224128250607
 31
0.0
  0
LINE
  5
30A
330
1F
100
AcDbEntity
  8
1
  6
Continuous
 62
     7
370
     9
100
AcDbLine
 10
146.432521452578
 20
397.8224128250607
 30
0.0
 11
195.4325214525781
 21
397.8224128250607
 31
0.0
  0
LINE
  5
30B
330
1F
100
AcDbEntity
  8
1
  6
Continuous
 62
     7
370
     9
100
AcDbLine
 10
145.432521452578
 20
396.8224128250607
 30
0.0
 11
196.4325214525781
 21
396.8224128250607
 31
0.0
  0
LINE
  5
30C
330
1F
100
AcDbEntity
  8
1
  6
Continuous
 62
     7
370
     9
100
AcDbLine
 10
146.432521452578
 20
428.7513450131952
 30
0.0
 11
146.432521452578
 21
397.8224128250607
 31
0.0
  0
LINE
  5
30D
330
1F
100
AcDbEntity
  8
1
  6
Continuous
 62
     7
370
     9
100
AcDbLine
 10
195.4325214525781
 20
428.7513450131952
 30
0.0
 11
195.4325214525781
 21
397.8224128250607
 31
0.0
  0
ARC
  5
30E
330
1F
100
AcDbEntity
  8
1
  6
Continuous
 62
     7
370
     9
100
AcDbCircle
 10
147.432521452578
 20
391.8224128250607
 30
0.0
 40
2.0
100
AcDbArc
 50
180.0000000000013
 51
269.9999999999998
  0
ARC
  5
30F
330
1F
100
AcDbEntity
  8
1
  6
Continuous
 62
     7
370
     9
100
AcDbCircle
 10
194.4325214525781
 20
391.8224128250607
 30
0.0
 40
2.0
100
AcDbArc
 50
269.9999999999998
 51
0.0
  0
CIRCLE
  5
310
330
1F
100
AcDbEntity
  8
1
  6
Continuous
 62
     7
370
     9
100
AcDbCircle
 10
170.932521452578
 20
435.8224128250607
 30
0.0
 40
18.93739072175811
  0
CIRCLE
  5
311
330
1F
100
AcDbEntity
  8
1
  6
Continuous
 62
     7
370
     9
100
AcDbCircle
 10
170.932521452578
 20
435.8224128250607
 30
0.0
 40
19.41393228216762
  0
CIRCLE
  5
312
330
1F
100
AcDbEntity
  8
1
  6
Continuous
 62
     7
370
     9
100
AcDbCircle
 10
170.932521452578
 20
435.8224128250607
 30
0.0
 40
21.40000000000001
  0
CIRCLE
  5
313
330
1F
100
AcDbEntity
  8
1
  6
Continuous
 62
     7
370
     9
100
AcDbCircle
 10
170.932521452578
 20
435.8224128250607
 30
0.0
 40
25.5
  0
MTEXT
  5
314
330
1F
100
AcDbEntity
  8
1
  6
Continuous
 62
     7
370
     9
100
AcDbMText
 10
125.4325214525781
 20
275.2224128012188
 30
0.0
 40
25.0
 41
60.8546046046046
 46
25.0
 71
     8
 72
     1
  1
{\fＭＳ 明朝;\T0.750000;32A}
 73
     1
 44
1.0
1001
ACAD
1000
ACAD_MTEXT_DEFINED_HEIGHT_BEGIN
1070
    46
1040
25.0
1000
ACAD_MTEXT_DEFINED_HEIGHT_END
  0
LINE
  5
315
330
1F
100
AcDbEntity
  8
1
  6
Continuous
 62
     7
370
     9
100
AcDbLine
 10
383.4325214525782
 20
312.4724128012188
 30
0.0
 11
383.4325214525782
 21
367.9724128012188
 31
0.0
  0
LINE
  5
316
330
1F
100
AcDbEntity
  8
1
  6
Continuous
 62
     7
370
     9
100
AcDbLine
 10
384.9325214525782
 20
310.9724128012188
 30
0.0
 11
384.9325214525782
 21
369.4724128012188
 31
0.0
  0
LINE
  5
317
330
1F
100
AcDbEntity
  8
1
  6
Continuous
 62
     7
370
     9
100
AcDbLine
 10
305.4325214525782
 20
312.4724128012188
 30
0.0
 11
305.4325214525782
 21
367.9724128012188
 31
0.0
  0
LINE
  5
318
330
1F
100
AcDbEntity
  8
1
  6
Continuous
 62
     7
370
     9
100
AcDbLine
 10
303.9325214525782
 20
310.9724128012188
 30
0.0
 11
303.9325214525782
 21
369.4724128012188
 31
0.0
  0
LINE
  5
319
330
1F
100
AcDbEntity
  8
1
  6
Continuous
 62
     7
370
     9
100
AcDbLine
 10
303.9325214525782
 20
369.4724128012188
 30
0.0
 11
298.4325214525782
 21
369.4724128012188
 31
0.0
  0
LINE
  5
31A
330
1F
100
AcDbEntity
  8
1
  6
Continuous
 62
     7
370
     9
100
AcDbLine
 10
296.4325214525782
 20
312.9724128012188
 30
0.0
 11
296.4325214525782
 21
367.4724128012188
 31
0.0
  0
LINE
  5
31B
330
1F
100
AcDbEntity
  8
1
  6
Continuous
 62
     7
370
     9
100
AcDbLine
 10
303.9325214525782
 20
310.9724128012188
 30
0.0
 11
298.4325214525782
 21
310.9724128012188
 31
0.0
  0
LINE
  5
31C
330
1F
100
AcDbEntity
  8
1
  6
Continuous
 62
     7
370
     9
100
AcDbLine
 10
335.1859004481247
 20
312.4724128012188
 30
0.0
 11
305.4325214525782
 21
312.4724128012188
 31
0.0
  0
LINE
  5
31D
330
1F
100
AcDbEntity
  8
1
  6
Continuous
 62
     7
370
     9
100
AcDbLine
 10
305.4325214525782
 20
367.9724128012188
 30
0.0
 11
303.9325214525782
 21
369.4724128012188
 31
0.0
  0
LINE
  5
31E
330
1F
100
AcDbEntity
  8
1
  6
Continuous
 62
     7
370
     9
100
AcDbLine
 10
303.9325214525782
 20
310.9724128012188
 30
0.0
 11
305.4325214525782
 21
312.4724128012188
 31
0.0
  0
LINE
  5
31F
330
1F
100
AcDbEntity
  8
1
  6
Continuous
 62
     7
370
     9
100
AcDbLine
 10
353.6791424570316
 20
312.4724128012188
 30
0.0
 11
383.4325214525782
 21
312.4724128012188
 31
0.0
  0
LINE
  5
320
330
1F
100
AcDbEntity
  8
1
  6
Continuous
 62
     7
370
     9
100
AcDbLine
 10
383.4325214525782
 20
367.9724128012188
 30
0.0
 11
384.9325214525782
 21
369.4724128012188
 31
0.0
  0
LINE
  5
321
330
1F
100
AcDbEntity
  8
1
  6
Continuous
 62
     7
370
     9
100
AcDbLine
 10
384.9325214525782
 20
310.9724128012188
 30
0.0
 11
383.4325214525782
 21
312.4724128012188
 31
0.0
  0
LINE
  5
322
330
1F
100
AcDbEntity
  8
1
  6
Continuous
 62
     7
370
     9
100
AcDbLine
 10
305.4325214525782
 20
367.9724128012188
 30
0.0
 11
335.1859004481247
 21
367.9724128012188
 31
0.0
  0
LINE
  5
323
330
1F
100
AcDbEntity
  8
1
  6
Continuous
 62
     7
370
     9
100
AcDbLine
 10
384.9325214525782
 20
310.9724128012188
 30
0.0
 11
390.4325214525782
 21
310.9724128012188
 31
0.0
  0
LINE
  5
324
330
1F
100
AcDbEntity
  8
1
  6
Continuous
 62
     7
370
     9
100
AcDbLine
 10
384.9325214525782
 20
369.4724128012188
 30
0.0
 11
390.4325214525782
 21
369.4724128012188
 31
0.0
  0
LINE
  5
325
330
1F
100
AcDbEntity
  8
1
  6
Continuous
 62
     7
370
     9
100
AcDbLine
 10
392.4325214525782
 20
312.9724128012188
 30
0.0
 11
392.4325214525782
 21
367.4724128012188
 31
0.0
  0
LINE
  5
326
330
1F
100
AcDbEntity
  8
1
  6
Continuous
 62
     7
370
     9
100
AcDbLine
 10
353.6791424570316
 20
367.9724128012188
 30
0.0
 11
383.4325214525782
 21
367.9724128012188
 31
0.0
  0
ARC
  5
327
330
1F
100
AcDbEntity
  8
1
  6
Continuous
 62
     7
370
     9
100
AcDbCircle
 10
298.4325214525782
 20
367.4724128012188
 30
0.0
 40
2.0
100
AcDbArc
 50
89.99999999999991
 51
179.9999999999998
  0
ARC
  5
328
330
1F
100
AcDbEntity
  8
1
  6
Continuous
 62
     7
370
     9
100
AcDbCircle
 10
298.4325214525782
 20
312.9724128012188
 30
0.0
 40
2.0
100
AcDbArc
 50
179.9999999999998
 51
269.9999999999998
  0
ARC
  5
329
330
1F
100
AcDbEntity
  8
1
  6
Continuous
 62
     7
370
     9
100
AcDbCircle
 10
390.4325214525782
 20
367.4724128012188
 30
0.0
 40
2.0
100
AcDbArc
 50
0.0
 51
89.99999999999991
  0
ARC
  5
32A
330
1F
100
AcDbEntity
  8
1
  6
Continuous
 62
     7
370
     9
100
AcDbCircle
 10
390.4325214525782
 20
312.9724128012188
 30
0.0
 40
2.0
100
AcDbArc
 50
269.9999999999998
 51
0.0
  0
CIRCLE
  5
32B
330
1F
100
AcDbEntity
  8
1
  6
Continuous
 62
     7
370
     9
100
AcDbCircle
 10
344.4325214525782
 20
340.2224128012188
 30
0.0
 40
24.35000000000001
  0
CIRCLE
  5
32C
330
1F
100
AcDbEntity
  8
1
  6
Continuous
 62
     7
370
     9
100
AcDbCircle
 10
344.4325214525782
 20
340.2224128012188
 30
0.0
 40
22.36031937311748
  0
CIRCLE
  5
32D
330
1F
100
AcDbEntity
  8
1
  6
Continuous
 62
     7
370
     9
100
AcDbCircle
 10
344.4325214525782
 20
340.2224128012188
 30
0.0
 40
21.85442364462137
  0
CIRCLE
  5
32E
330
1F
100
AcDbEntity
  8
1
  6
Continuous
 62
     7
370
     9
100
AcDbCircle
 10
344.4325214525782
 20
340.2224128012188
 30
0.0
 40
29.25
  0
LINE
  5
32F
330
1F
100
AcDbEntity
  8
1
  6
Continuous
 62
     7
370
     9
100
AcDbLine
 10
372.1825214525782
 20
398.4724128012188
 30
0.0
 11
373.6825214525782
 21
396.9724128012188
 31
0.0
  0
LINE
  5
330
330
1F
100
AcDbEntity
  8
1
  6
Continuous
 62
     7
370
     9
100
AcDbLine
 10
392.4325214525782
 20
410.2224128012188
 30
0.0
 11
392.4325214525782
 21
464.7224128012188
 31
0.0
  0
LINE
  5
331
330
1F
100
AcDbEntity
  8
1
  6
Continuous
 62
     7
370
     9
100
AcDbLine
 10
384.9325214525782
 20
466.7224128012188
 30
0.0
 11
390.4325214525782
 21
466.7224128012188
 31
0.0
  0
LINE
  5
332
330
1F
100
AcDbEntity
  8
1
  6
Continuous
 62
     7
370
     9
100
AcDbLine
 10
317.1825214525782
 20
389.4724128012188
 30
0.0
 11
371.6825214525782
 21
389.4724128012188
 31
0.0
  0
LINE
  5
333
330
1F
100
AcDbEntity
  8
1
  6
Continuous
 62
     7
370
     9
100
AcDbLine
 10
384.9325214525782
 20
408.2224128012188
 30
0.0
 11
390.4325214525782
 21
408.2224128012188
 31
0.0
  0
LINE
  5
334
330
1F
100
AcDbEntity
  8
1
  6
Continuous
 62
     7
370
     9
100
AcDbLine
 10
315.1825214525782
 20
396.9724128012188
 30
0.0
 11
316.6825214525782
 21
398.4724128012188
 31
0.0
  0
LINE
  5
335
330
1F
100
AcDbEntity
  8
1
  6
Continuous
 62
     7
370
     9
100
AcDbLine
 10
305.4325214525782
 20
465.2224128012188
 30
0.0
 11
383.4325214525782
 21
465.2224128012188
 31
0.0
  0
LINE
  5
336
330
1F
100
AcDbEntity
  8
1
  6
Continuous
 62
     7
370
     9
100
AcDbLine
 10
315.1825214525782
 20
396.9724128012188
 30
0.0
 11
315.1825214525782
 21
391.4724128012188
 31
0.0
  0
LINE
  5
337
330
1F
100
AcDbEntity
  8
1
  6
Continuous
 62
     7
370
     9
100
AcDbLine
 10
316.6825214525782
 20
402.7224128012188
 30
0.0
 11
316.6825214525782
 21
398.4724128012188
 31
0.0
  0
LINE
  5
338
330
1F
100
AcDbEntity
  8
1
  6
Continuous
 62
     7
370
     9
100
AcDbLine
 10
373.6825214525782
 20
396.9724128012188
 30
0.0
 11
373.6825214525782
 21
391.4724128012188
 31
0.0
  0
LINE
  5
339
330
1F
100
AcDbEntity
  8
1
  6
Continuous
 62
     7
370
     9
100
AcDbLine
 10
384.9325214525782
 20
408.2224128012188
 30
0.0
 11
383.4325214525782
 21
409.7224128012188
 31
0.0
  0
LINE
  5
33A
330
1F
100
AcDbEntity
  8
1
  6
Continuous
 62
     7
370
     9
100
AcDbLine
 10
372.1825214525782
 20
402.7224128012188
 30
0.0
 11
372.1825214525782
 21
398.4724128012188
 31
0.0
  0
LINE
  5
33B
330
1F
100
AcDbEntity
  8
1
  6
Continuous
 62
     7
370
     9
100
AcDbLine
 10
383.4325214525782
 20
465.2224128012188
 30
0.0
 11
384.9325214525782
 21
466.7224128012188
 31
0.0
  0
LINE
  5
33C
330
1F
100
AcDbEntity
  8
1
  6
Continuous
 62
     7
370
     9
100
AcDbLine
 10
379.1825214525782
 20
409.7224128012188
 30
0.0
 11
383.4325214525782
 21
409.7224128012188
 31
0.0
  0
LINE
  5
33D
330
1F
100
AcDbEntity
  8
1
  6
Continuous
 62
     7
370
     9
100
AcDbLine
 10
303.9325214525782
 20
408.2224128012188
 30
0.0
 11
305.4325214525782
 21
409.7224128012188
 31
0.0
  0
LINE
  5
33E
330
1F
100
AcDbEntity
  8
1
  6
Continuous
 62
     7
370
     9
100
AcDbLine
 10
305.4325214525782
 20
465.2224128012188
 30
0.0
 11
303.9325214525782
 21
466.7224128012188
 31
0.0
  0
LINE
  5
33F
330
1F
100
AcDbEntity
  8
1
  6
Continuous
 62
     7
370
     9
100
AcDbLine
 10
309.6825214525782
 20
409.7224128012188
 30
0.0
 11
305.4325214525782
 21
409.7224128012188
 31
0.0
  0
LINE
  5
340
330
1F
100
AcDbEntity
  8
1
  6
Continuous
 62
     7
370
     9
100
AcDbLine
 10
303.9325214525782
 20
408.2224128012188
 30
0.0
 11
298.4325214525782
 21
408.2224128012188
 31
0.0
  0
LINE
  5
341
330
1F
100
AcDbEntity
  8
1
  6
Continuous
 62
     7
370
     9
100
AcDbLine
 10
296.4325214525782
 20
410.2224128012188
 30
0.0
 11
296.4325214525782
 21
464.7224128012188
 31
0.0
  0
LINE
  5
342
330
1F
100
AcDbEntity
  8
1
  6
Continuous
 62
     7
370
     9
100
AcDbLine
 10
303.9325214525782
 20
466.7224128012188
 30
0.0
 11
298.4325214525782
 21
466.7224128012188
 31
0.0
  0
LINE
  5
343
330
1F
100
AcDbEntity
  8
1
  6
Continuous
 62
     7
370
     9
100
AcDbLine
 10
315.1825214525782
 20
396.9724128012188
 30
0.0
 11
373.6825214525782
 21
396.9724128012188
 31
0.0
  0
LINE
  5
344
330
1F
100
AcDbEntity
  8
1
  6
Continuous
 62
     7
370
     9
100
AcDbLine
 10
384.9325214525782
 20
408.2224128012188
 30
0.0
 11
384.9325214525782
 21
466.7224128012188
 31
0.0
  0
LINE
  5
345
330
1F
100
AcDbEntity
  8
1
  6
Continuous
 62
     7
370
     9
100
AcDbLine
 10
383.4325214525782
 20
409.7224128012188
 30
0.0
 11
383.4325214525782
 21
465.2224128012188
 31
0.0
  0
LINE
  5
346
330
1F
100
AcDbEntity
  8
1
  6
Continuous
 62
     7
370
     9
100
AcDbLine
 10
316.6825214525782
 20
398.4724128012188
 30
0.0
 11
372.1825214525782
 21
398.4724128012188
 31
0.0
  0
LINE
  5
347
330
1F
100
AcDbEntity
  8
1
  6
Continuous
 62
     7
370
     9
100
AcDbLine
 10
305.4325214525782
 20
409.7224128012188
 30
0.0
 11
305.4325214525782
 21
465.2224128012188
 31
0.0
  0
LINE
  5
348
330
1F
100
AcDbEntity
  8
1
  6
Continuous
 62
     7
370
     9
100
AcDbLine
 10
303.9325214525782
 20
408.2224128012188
 30
0.0
 11
303.9325214525782
 21
466.7224128012188
 31
0.0
  0
LINE
  5
349
330
1F
100
AcDbEntity
  8
1
  6
Continuous
 62
     7
370
     9
100
AcDbLine
 10
316.6825214525782
 20
409.7224128012188
 30
0.0
 11
343.0183078902051
 21
436.0581992388457
 31
0.0
  0
LINE
  5
34A
330
1F
100
AcDbEntity
  8
1
  6
Continuous
 62
     7
370
     9
100
AcDbLine
 10
372.1825214525782
 20
409.7224128012188
 30
0.0
 11
345.8467350149513
 21
436.0581992388457
 31
0.0
  0
ARC
  5
34B
330
1F
100
AcDbEntity
  8
1
  6
Continuous
 62
     7
370
     9
100
AcDbCircle
 10
390.4325214525782
 20
410.2224128012188
 30
0.0
 40
2.0
100
AcDbArc
 50
269.9999999999998
 51
0.0
  0
ARC
  5
34C
330
1F
100
AcDbEntity
  8
1
  6
Continuous
 62
     7
370
     9
100
AcDbCircle
 10
371.6825214525782
 20
391.4724128012188
 30
0.0
 40
2.0
100
AcDbArc
 50
269.9999999999998
 51
0.0
  0
ARC
  5
34D
330
1F
100
AcDbEntity
  8
1
  6
Continuous
 62
     7
370
     9
100
AcDbCircle
 10
379.1825214525782
 20
402.7224128012188
 30
0.0
 40
7.0
100
AcDbArc
 50
89.99999999999991
 51
180.0000000000001
  0
ARC
  5
34E
330
1F
100
AcDbEntity
  8
1
  6
Continuous
 62
     7
370
     9
100
AcDbCircle
 10
390.4325214525782
 20
464.7224128012188
 30
0.0
 40
2.0
100
AcDbArc
 50
0.0
 51
89.99999999999991
  0
ARC
  5
34F
330
1F
100
AcDbEntity
  8
1
  6
Continuous
 62
     7
370
     9
100
AcDbCircle
 10
317.1825214525782
 20
391.4724128012188
 30
0.0
 40
2.0
100
AcDbArc
 50
179.9999999999998
 51
269.9999999999998
  0
ARC
  5
350
330
1F
100
AcDbEntity
  8
1
  6
Continuous
 62
     7
370
     9
100
AcDbCircle
 10
298.4325214525782
 20
410.2224128012188
 30
0.0
 40
2.0
100
AcDbArc
 50
179.9999999999998
 51
269.9999999999998
  0
ARC
  5
351
330
1F
100
AcDbEntity
  8
1
  6
Continuous
 62
     7
370
     9
100
AcDbCircle
 10
309.6825214525782
 20
402.7224128012188
 30
0.0
 40
7.0
100
AcDbArc
 50
0.0
 51
89.99999999999991
  0
ARC
  5
352
330
1F
100
AcDbEntity
  8
1
  6
Continuous
 62
     7
370
     9
100
AcDbCircle
 10
298.4325214525782
 20
464.7224128012188
 30
0.0
 40
2.0
100
AcDbArc
 50
89.99999999999991
 51
179.9999999999998
  0
LINE
  5
353
330
1F
100
AcDbEntity
  8
1
  6
Continuous
 62
     7
370
     9
100
AcDbLine
 10
412.4325214525782
 20
396.9724128012188
 30
0.0
 11
470.9325214525782
 21
396.9724128012188
 31
0.0
  0
LINE
  5
354
330
1F
100
AcDbEntity
  8
1
  6
Continuous
 62
     7
370
     9
100
AcDbLine
 10
412.4325214525783
 20
396.9724128012188
 30
0.0
 11
413.9325214525782
 21
398.4724128012188
 31
0.0
  0
LINE
  5
355
330
1F
100
AcDbEntity
  8
1
  6
Continuous
 62
     7
370
     9
100
AcDbLine
 10
469.4325214525782
 20
398.4724128012188
 30
0.0
 11
470.9325214525782
 21
396.9724128012188
 31
0.0
  0
LINE
  5
356
330
1F
100
AcDbEntity
  8
1
  6
Continuous
 62
     7
370
     9
100
AcDbLine
 10
414.4325214525782
 20
389.4724128012188
 30
0.0
 11
468.9325214525782
 21
389.4724128012188
 31
0.0
  0
LINE
  5
357
330
1F
100
AcDbEntity
  8
1
  6
Continuous
 62
     7
370
     9
100
AcDbLine
 10
470.9325214525782
 20
396.9724128012188
 30
0.0
 11
470.9325214525782
 21
391.4724128012188
 31
0.0
  0
LINE
  5
358
330
1F
100
AcDbEntity
  8
1
  6
Continuous
 62
     7
370
     9
100
AcDbLine
 10
413.9325214525782
 20
398.4724128012188
 30
0.0
 11
469.4325214525782
 21
398.4724128012188
 31
0.0
  0
LINE
  5
359
330
1F
100
AcDbEntity
  8
1
  6
Continuous
 62
     7
370
     9
100
AcDbLine
 10
412.4325214525782
 20
396.9724128012188
 30
0.0
 11
412.4325214525782
 21
391.4724128012188
 31
0.0
  0
LINE
  5
35A
330
1F
100
AcDbEntity
  8
1
  6
Continuous
 62
     7
370
     9
100
AcDbLine
 10
469.4325214525782
 20
428.2257917967653
 30
0.0
 11
469.4325214525782
 21
398.4724128012188
 31
0.0
  0
LINE
  5
35B
330
1F
100
AcDbEntity
  8
1
  6
Continuous
 62
     7
370
     9
100
AcDbLine
 10
413.9325214525782
 20
428.2257917967653
 30
0.0
 11
413.9325214525782
 21
398.4724128012188
 31
0.0
  0
CIRCLE
  5
35C
330
1F
100
AcDbEntity
  8
1
  6
Continuous
 62
     7
370
     9
100
AcDbCircle
 10
441.6825214525782
 20
437.4724128012188
 30
0.0
 40
29.25
  0
CIRCLE
  5
35D
330
1F
100
AcDbEntity
  8
1
  6
Continuous
 62
     7
370
     9
100
AcDbCircle
 10
441.6825214525782
 20
437.4724128012188
 30
0.0
 40
21.85442364462136
  0
CIRCLE
  5
35E
330
1F
100
AcDbEntity
  8
1
  6
Continuous
 62
     7
370
     9
100
AcDbCircle
 10
441.6825214525782
 20
437.4724128012188
 30
0.0
 40
22.36031937311748
  0
ARC
  5
35F
330
1F
100
AcDbEntity
  8
1
  6
Continuous
 62
     7
370
     9
100
AcDbCircle
 10
468.9325214525782
 20
391.4724128012188
 30
0.0
 40
2.0
100
AcDbArc
 50
269.9999999999998
 51
0.0
  0
ARC
  5
360
330
1F
100
AcDbEntity
  8
1
  6
Continuous
 62
     7
370
     9
100
AcDbCircle
 10
414.4325214525782
 20
391.4724128012188
 30
0.0
 40
2.0
100
AcDbArc
 50
179.9999999999998
 51
269.9999999999998
  0
CIRCLE
  5
361
330
1F
100
AcDbEntity
  8
1
  6
Continuous
 62
     7
370
     9
100
AcDbCircle
 10
441.6825214525782
 20
437.4724128012188
 30
0.0
 40
24.35000000000002
  0
MTEXT
  5
362
330
1F
100
AcDbEntity
  8
1
  6
Continuous
 62
     7
370
     9
100
AcDbMText
 10
392.4325214525782
 20
275.2224128012188
 30
0.0
 40
25.0
 41
62.09834834834835
 46
25.0
 71
     8
 72
     1
  1
{\fＭＳ 明朝;\T0.750000;40A}
 73
     1
 44
1.0
1001
ACAD
1000
ACAD_MTEXT_DEFINED_HEIGHT_BEGIN
1070
    46
1040
25.0
1000
ACAD_MTEXT_DEFINED_HEIGHT_END
  0
LINE
  5
363
330
1F
100
AcDbEntity
  8
1
  6
Continuous
 62
     7
370
     9
100
AcDbLine
 10
580.9825214525785
 20
394.1724128012188
 30
0.0
 11
580.9825214525785
 21
326.2724128012189
 31
0.0
  0
LINE
  5
364
330
1F
100
AcDbEntity
  8
1
  6
Continuous
 62
     7
370
     9
100
AcDbLine
 10
617.557190132567
 20
326.2724128012189
 30
0.0
 11
580.9825214525785
 21
326.2724128012189
 31
0.0
  0
LINE
  5
365
330
1F
100
AcDbEntity
  8
1
  6
Continuous
 62
     7
370
     9
100
AcDbLine
 10
579.4325214525782
 20
324.7224128012188
 30
0.0
 11
572.9325214525782
 21
324.7224128012188
 31
0.0
  0
LINE
  5
366
330
1F
100
AcDbEntity
  8
1
  6
Continuous
 62
     7
370
     9
100
AcDbLine
 10
674.8825214525784
 20
394.1724128012188
 30
0.0
 11
638.3078527725891
 21
394.1724128012188
 31
0.0
  0
LINE
  5
367
330
1F
100
AcDbEntity
  8
1
  6
Continuous
 62
     7
370
     9
100
AcDbLine
 10
579.4325214525782
 20
395.7224128012188
 30
0.0
 11
572.9325214525782
 21
395.7224128012188
 31
0.0
  0
LINE
  5
368
330
1F
100
AcDbEntity
  8
1
  6
Continuous
 62
     7
370
     9
100
AcDbLine
 10
674.882521452578
 20
394.1724128012188
 30
0.0
 11
674.882521452578
 21
326.2724128012189
 31
0.0
  0
LINE
  5
369
330
1F
100
AcDbEntity
  8
1
  6
Continuous
 62
     7
370
     9
100
AcDbLine
 10
570.9325214525782
 20
393.7224128012188
 30
0.0
 11
570.9325214525782
 21
326.7224128012188
 31
0.0
  0
LINE
  5
36A
330
1F
100
AcDbEntity
  8
1
  6
Continuous
 62
     7
370
     9
100
AcDbLine
 10
676.4325214525779
 20
395.7224128012188
 30
0.0
 11
676.4325214525779
 21
324.7224128012188
 31
0.0
  0
LINE
  5
36B
330
1F
100
AcDbEntity
  8
1
  6
Continuous
 62
     7
370
     9
100
AcDbLine
 10
579.4325214525784
 20
395.7224128012188
 30
0.0
 11
579.4325214525784
 21
324.7224128012188
 31
0.0
  0
LINE
  5
36C
330
1F
100
AcDbEntity
  8
1
  6
Continuous
 62
     7
370
     9
100
AcDbLine
 10
580.9825214525779
 20
394.1724128012187
 30
0.0
 11
579.4325214525779
 21
395.7224128012185
 31
0.0
  0
LINE
  5
36D
330
1F
100
AcDbEntity
  8
1
  6
Continuous
 62
     7
370
     9
100
AcDbLine
 10
580.9825214525783
 20
326.2724128012188
 30
0.0
 11
579.4325214525783
 21
324.7224128012187
 31
0.0
  0
LINE
  5
36E
330
1F
100
AcDbEntity
  8
1
  6
Continuous
 62
     7
370
     9
100
AcDbLine
 10
674.8825214525784
 20
394.1724128012187
 30
0.0
 11
676.4325214525784
 21
395.7224128012185
 31
0.0
  0
LINE
  5
36F
330
1F
100
AcDbEntity
  8
1
  6
Continuous
 62
     7
370
     9
100
AcDbLine
 10
676.4325214525782
 20
395.7224128012188
 30
0.0
 11
682.9325214525782
 21
395.7224128012188
 31
0.0
  0
LINE
  5
370
330
1F
100
AcDbEntity
  8
1
  6
Continuous
 62
     7
370
     9
100
AcDbLine
 10
638.3078527725893
 20
326.2724128012189
 30
0.0
 11
674.882521452578
 21
326.2724128012189
 31
0.0
  0
LINE
  5
371
330
1F
100
AcDbEntity
  8
1
  6
Continuous
 62
     7
370
     9
100
AcDbLine
 10
674.882521452578
 20
326.2724128012188
 30
0.0
 11
676.4325214525782
 21
324.7224128012187
 31
0.0
  0
LINE
  5
372
330
1F
100
AcDbEntity
  8
1
  6
Continuous
 62
     7
370
     9
100
AcDbLine
 10
676.4325214525782
 20
324.7224128012188
 30
0.0
 11
682.9325214525782
 21
324.7224128012188
 31
0.0
  0
LINE
  5
373
330
1F
100
AcDbEntity
  8
1
  6
Continuous
 62
     7
370
     9
100
AcDbLine
 10
684.9325214525782
 20
393.7224128012188
 30
0.0
 11
684.9325214525782
 21
326.7224128012188
 31
0.0
  0
LINE
  5
374
330
1F
100
AcDbEntity
  8
1
  6
Continuous
 62
     7
370
     9
100
AcDbLine
 10
617.5571901325673
 20
394.1724128012188
 30
0.0
 11
580.982521452578
 21
394.1724128012188
 31
0.0
  0
CIRCLE
  5
375
330
1F
100
AcDbEntity
  8
1
  6
Continuous
 62
     7
370
     9
100
AcDbCircle
 10
627.9325214525782
 20
360.2224128012188
 30
0.0
 40
35.5
  0
CIRCLE
  5
376
330
1F
100
AcDbEntity
  8
1
  6
Continuous
 62
     7
370
     9
100
AcDbCircle
 10
627.9325214525782
 20
360.2224128012188
 30
0.0
 40
27.6825595374799
  0
CIRCLE
  5
377
330
1F
100
AcDbEntity
  8
1
  6
Continuous
 62
     7
370
     9
100
AcDbCircle
 10
627.9325214525782
 20
360.2224128012188
 30
0.0
 40
28.26599680162483
  0
CIRCLE
  5
378
330
1F
100
AcDbEntity
  8
1
  6
Continuous
 62
     7
370
     9
100
AcDbCircle
 10
627.9325214525782
 20
360.2224128012188
 30
0.0
 40
30.25
  0
ARC
  5
379
330
1F
100
AcDbEntity
  8
1
  6
Continuous
 62
     7
370
     9
100
AcDbCircle
 10
572.9325214525783
 20
393.7224128012188
 30
0.0
 40
2.0
100
AcDbArc
 50
89.99999999999991
 51
179.9999999999998
  0
ARC
  5
37A
330
1F
100
AcDbEntity
  8
1
  6
Continuous
 62
     7
370
     9
100
AcDbCircle
 10
572.9325214525783
 20
326.7224128012188
 30
0.0
 40
2.0
100
AcDbArc
 50
179.9999999999998
 51
269.9999999999998
  0
ARC
  5
37B
330
1F
100
AcDbEntity
  8
1
  6
Continuous
 62
     7
370
     9
100
AcDbCircle
 10
682.9325214525782
 20
393.7224128012188
 30
0.0
 40
2.0
100
AcDbArc
 50
0.0
 51
89.99999999999991
  0
ARC
  5
37C
330
1F
100
AcDbEntity
  8
1
  6
Continuous
 62
     7
370
     9
100
AcDbCircle
 10
682.9325214525782
 20
326.7224128012188
 30
0.0
 40
2.0
100
AcDbArc
 50
269.9999999999998
 51
0.0
  0
LINE
  5
37D
330
1F
100
AcDbEntity
  8
1
  6
Continuous
 62
     7
370
     9
100
AcDbLine
 10
594.4325214525779
 20
415.7224128012189
 30
0.0
 11
661.4325214525779
 21
415.7224128012187
 31
0.0
  0
LINE
  5
37E
330
1F
100
AcDbEntity
  8
1
  6
Continuous
 62
     7
370
     9
100
AcDbLine
 10
684.9325214525782
 20
506.2224128012188
 30
0.0
 11
684.9325214525782
 21
439.2224128012188
 31
0.0
  0
LINE
  5
37F
330
1F
100
AcDbEntity
  8
1
  6
Continuous
 62
     7
370
     9
100
AcDbLine
 10
676.4325214525782
 20
437.2224128012188
 30
0.0
 11
682.9325214525782
 21
437.2224128012188
 31
0.0
  0
LINE
  5
380
330
1F
100
AcDbEntity
  8
1
  6
Continuous
 62
     7
370
     9
100
AcDbLine
 10
663.4325214525779
 20
424.2224128012186
 30
0.0
 11
663.4325214525779
 21
417.7224128012186
 31
0.0
  0
LINE
  5
381
330
1F
100
AcDbEntity
  8
1
  6
Continuous
 62
     7
370
     9
100
AcDbLine
 10
592.4325214525779
 20
424.2224128012189
 30
0.0
 11
592.4325214525779
 21
417.7224128012189
 31
0.0
  0
LINE
  5
382
330
1F
100
AcDbEntity
  8
1
  6
Continuous
 62
     7
370
     9
100
AcDbLine
 10
674.882521452578
 20
438.7724128012187
 30
0.0
 11
676.4325214525782
 21
437.2224128012186
 31
0.0
  0
LINE
  5
383
330
1F
100
AcDbEntity
  8
1
  6
Continuous
 62
     7
370
     9
100
AcDbLine
 10
669.8825212977208
 20
438.7724128012188
 30
0.0
 11
674.882521452578
 21
438.7724128012188
 31
0.0
  0
LINE
  5
384
330
1F
100
AcDbEntity
  8
1
  6
Continuous
 62
     7
370
     9
100
AcDbLine
 10
676.4325214525782
 20
508.2224128012188
 30
0.0
 11
682.9325214525782
 21
508.2224128012188
 31
0.0
  0
LINE
  5
385
330
1F
100
AcDbEntity
  8
1
  6
Continuous
 62
     7
370
     9
100
AcDbLine
 10
674.8825214525784
 20
506.6724128012186
 30
0.0
 11
676.4325214525784
 21
508.2224128012186
 31
0.0
  0
LINE
  5
386
330
1F
100
AcDbEntity
  8
1
  6
Continuous
 62
     7
370
     9
100
AcDbLine
 10
661.8825214525782
 20
425.7724128012185
 30
0.0
 11
663.4325214525779
 21
424.2224128012186
 31
0.0
  0
LINE
  5
387
330
1F
100
AcDbEntity
  8
1
  6
Continuous
 62
     7
370
     9
100
AcDbLine
 10
593.9825214525781
 20
425.7724128012189
 30
0.0
 11
592.4325214525779
 21
424.2224128012189
 31
0.0
  0
LINE
  5
388
330
1F
100
AcDbEntity
  8
1
  6
Continuous
 62
     7
370
     9
100
AcDbLine
 10
580.9825214525783
 20
438.7724128012187
 30
0.0
 11
579.4325214525784
 21
437.2224128012186
 31
0.0
  0
LINE
  5
389
330
1F
100
AcDbEntity
  8
1
  6
Continuous
 62
     7
370
     9
100
AcDbLine
 10
580.9825214525779
 20
506.6724128012186
 30
0.0
 11
579.4325214525779
 21
508.2224128012186
 31
0.0
  0
LINE
  5
38A
330
1F
100
AcDbEntity
  8
1
  6
Continuous
 62
     7
370
     9
100
AcDbLine
 10
593.9825214525781
 20
430.7724140139939
 30
0.0
 11
593.9825214525781
 21
425.7724128012189
 31
0.0
  0
LINE
  5
38B
330
1F
100
AcDbEntity
  8
1
  6
Continuous
 62
     7
370
     9
100
AcDbLine
 10
661.8825214525782
 20
430.7724128012188
 30
0.0
 11
661.8825214525782
 21
425.7724128012185
 31
0.0
  0
LINE
  5
38C
330
1F
100
AcDbEntity
  8
1
  6
Continuous
 62
     7
370
     9
100
AcDbLine
 10
570.9325214525782
 20
506.2224128012188
 30
0.0
 11
570.9325214525782
 21
439.2224128012188
 31
0.0
  0
LINE
  5
38D
330
1F
100
AcDbEntity
  8
1
  6
Continuous
 62
     7
370
     9
100
AcDbLine
 10
579.4325214525782
 20
508.2224128012188
 30
0.0
 11
572.9325214525782
 21
508.2224128012188
 31
0.0
  0
LINE
  5
38E
330
1F
100
AcDbEntity
  8
1
  6
Continuous
 62
     7
370
     9
100
AcDbLine
 10
674.8825214525784
 20
506.6724128012189
 30
0.0
 11
580.982521452578
 21
506.6724128012189
 31
0.0
  0
LINE
  5
38F
330
1F
100
AcDbEntity
  8
1
  6
Continuous
 62
     7
370
     9
100
AcDbLine
 10
579.4325214525782
 20
437.2224128012188
 30
0.0
 11
572.9325214525782
 21
437.2224128012188
 31
0.0
  0
LINE
  5
390
330
1F
100
AcDbEntity
  8
1
  6
Continuous
 62
     7
370
     9
100
AcDbLine
 10
585.9825216074355
 20
438.7724128012188
 30
0.0
 11
580.9825214525783
 21
438.7724128012188
 31
0.0
  0
LINE
  5
391
330
1F
100
AcDbEntity
  8
1
  6
Continuous
 62
     7
370
     9
100
AcDbLine
 10
592.4325214525779
 20
424.2224128012189
 30
0.0
 11
663.4325214525779
 21
424.2224128012186
 31
0.0
  0
LINE
  5
392
330
1F
100
AcDbEntity
  8
1
  6
Continuous
 62
     7
370
     9
100
AcDbLine
 10
676.4325214525779
 20
508.2224128012188
 30
0.0
 11
676.4325214525779
 21
437.2224128012188
 31
0.0
  0
LINE
  5
393
330
1F
100
AcDbEntity
  8
1
  6
Continuous
 62
     7
370
     9
100
AcDbLine
 10
593.9825214525781
 20
425.7724128012187
 30
0.0
 11
661.8825214525782
 21
425.7724128012185
 31
0.0
  0
LINE
  5
394
330
1F
100
AcDbEntity
  8
1
  6
Continuous
 62
     7
370
     9
100
AcDbLine
 10
674.882521452578
 20
506.6724128012189
 30
0.0
 11
674.882521452578
 21
438.7724128012188
 31
0.0
  0
LINE
  5
395
330
1F
100
AcDbEntity
  8
1
  6
Continuous
 62
     7
370
     9
100
AcDbLine
 10
580.9825214525785
 20
506.6724128012189
 30
0.0
 11
580.9825214525785
 21
438.7724128012188
 31
0.0
  0
LINE
  5
396
330
1F
100
AcDbEntity
  8
1
  6
Continuous
 62
     7
370
     9
100
AcDbLine
 10
579.4325214525784
 20
508.2224128012188
 30
0.0
 11
579.4325214525784
 21
437.2224128012188
 31
0.0
  0
LINE
  5
397
330
1F
100
AcDbEntity
  8
1
  6
Continuous
 62
     7
370
     9
100
AcDbLine
 10
593.9825214525781
 20
438.7724128012188
 30
0.0
 11
625.8112011090184
 21
470.6010924576591
 31
0.0
  0
LINE
  5
398
330
1F
100
AcDbEntity
  8
1
  6
Continuous
 62
     7
370
     9
100
AcDbLine
 10
661.8825214525782
 20
438.7724128012188
 30
0.0
 11
630.0538417961377
 21
470.6010924576591
 31
0.0
  0
ARC
  5
399
330
1F
100
AcDbEntity
  8
1
  6
Continuous
 62
     7
370
     9
100
AcDbCircle
 10
594.4325214525779
 20
417.7224128012189
 30
0.0
 40
2.0
100
AcDbArc
 50
179.9999999999998
 51
270.0000000000029
  0
ARC
  5
39A
330
1F
100
AcDbEntity
  8
1
  6
Continuous
 62
     7
370
     9
100
AcDbCircle
 10
682.9325214525782
 20
439.2224128012188
 30
0.0
 40
2.0
100
AcDbArc
 50
269.9999999999998
 51
0.0
  0
ARC
  5
39B
330
1F
100
AcDbEntity
  8
1
  6
Continuous
 62
     7
370
     9
100
AcDbCircle
 10
682.9325214525782
 20
506.2224128012188
 30
0.0
 40
2.0
100
AcDbArc
 50
0.0
 51
89.99999999999991
  0
ARC
  5
39C
330
1F
100
AcDbEntity
  8
1
  6
Continuous
 62
     7
370
     9
100
AcDbCircle
 10
661.4325214525779
 20
417.7224128012186
 30
0.0
 40
2.0
100
AcDbArc
 50
269.9999999999998
 51
0.0
  0
ARC
  5
39D
330
1F
100
AcDbEntity
  8
1
  6
Continuous
 62
     7
370
     9
100
AcDbCircle
 10
585.9825214525781
 20
430.7724128012188
 30
0.0
 40
8.0
100
AcDbArc
 50
0.0
 51
89.99999999999991
  0
ARC
  5
39E
330
1F
100
AcDbEntity
  8
1
  6
Continuous
 62
     7
370
     9
100
AcDbCircle
 10
669.8825214525782
 20
430.7724128012188
 30
0.0
 40
8.0
100
AcDbArc
 50
89.99999999999991
 51
180.0
  0
ARC
  5
39F
330
1F
100
AcDbEntity
  8
1
  6
Continuous
 62
     7
370
     9
100
AcDbCircle
 10
572.9325214525783
 20
439.2224128012188
 30
0.0
 40
2.0
100
AcDbArc
 50
179.9999999999998
 51
269.9999999999998
  0
ARC
  5
3A0
330
1F
100
AcDbEntity
  8
1
  6
Continuous
 62
     7
370
     9
100
AcDbCircle
 10
572.9325214525783
 20
506.2224128012188
 30
0.0
 40
2.0
100
AcDbArc
 50
89.99999999999991
 51
179.9999999999998
  0
LINE
  5
3A1
330
1F
100
AcDbEntity
  8
1
  6
Continuous
 62
     7
370
     9
100
AcDbLine
 10
704.9325214525782
 20
424.2224128012186
 30
0.0
 11
740.4325214525782
 21
424.2224128012186
 31
0.0
  0
LINE
  5
3A2
330
1F
100
AcDbEntity
  8
1
  6
Continuous
 62
     7
370
     9
100
AcDbLine
 10
706.9325214525782
 20
415.7224128012186
 30
0.0
 11
773.9325214525782
 21
415.7224128012186
 31
0.0
  0
LINE
  5
3A3
330
1F
100
AcDbEntity
  8
1
  6
Continuous
 62
     7
370
     9
100
AcDbLine
 10
774.3825214525782
 20
425.7724128012186
 30
0.0
 11
775.9325214525779
 21
424.2224128012186
 31
0.0
  0
LINE
  5
3A4
330
1F
100
AcDbEntity
  8
1
  6
Continuous
 62
     7
370
     9
100
AcDbLine
 10
704.9325214525782
 20
424.2224128012186
 30
0.0
 11
706.4825214525781
 21
425.7724128012186
 31
0.0
  0
LINE
  5
3A5
330
1F
100
AcDbEntity
  8
1
  6
Continuous
 62
     7
370
     9
100
AcDbLine
 10
704.9325214525782
 20
424.2224128012186
 30
0.0
 11
704.9325214525782
 21
417.7224128012186
 31
0.0
  0
LINE
  5
3A6
330
1F
100
AcDbEntity
  8
1
  6
Continuous
 62
     7
370
     9
100
AcDbLine
 10
775.9325214525782
 20
424.2224128012186
 30
0.0
 11
775.9325214525782
 21
417.7224128012186
 31
0.0
  0
LINE
  5
3A7
330
1F
100
AcDbEntity
  8
1
  6
Continuous
 62
     7
370
     9
100
AcDbLine
 10
706.4825214525781
 20
462.3470814812077
 30
0.0
 11
706.4825214525781
 21
425.7724128012187
 31
0.0
  0
LINE
  5
3A8
330
1F
100
AcDbEntity
  8
1
  6
Continuous
 62
     7
370
     9
100
AcDbLine
 10
774.3825214525782
 20
462.3470814812076
 30
0.0
 11
774.3825214525782
 21
425.7724128012186
 31
0.0
  0
LINE
  5
3A9
330
1F
100
AcDbEntity
  8
1
  6
Continuous
 62
     7
370
     9
100
AcDbLine
 10
706.4825214525781
 20
425.7724128012186
 30
0.0
 11
740.4325214525782
 21
425.7724128012186
 31
0.0
  0
LINE
  5
3AA
330
1F
100
AcDbEntity
  8
1
  6
Continuous
 62
     7
370
     9
100
AcDbLine
 10
740.4325214525782
 20
424.2224128012186
 30
0.0
 11
775.9325214525779
 21
424.2224128012186
 31
0.0
  0
LINE
  5
3AB
330
1F
100
AcDbEntity
  8
1
  6
Continuous
 62
     7
370
     9
100
AcDbLine
 10
740.4325214525782
 20
425.7724128012186
 30
0.0
 11
774.3825214525782
 21
425.7724128012186
 31
0.0
  0
ARC
  5
3AC
330
1F
100
AcDbEntity
  8
1
  6
Continuous
 62
     7
370
     9
100
AcDbCircle
 10
706.9325214525782
 20
417.7224128012186
 30
0.0
 40
2.0
100
AcDbArc
 50
179.9999999999998
 51
269.9999999999998
  0
ARC
  5
3AD
330
1F
100
AcDbEntity
  8
1
  6
Continuous
 62
     7
370
     9
100
AcDbCircle
 10
773.9325214525779
 20
417.7224128012186
 30
0.0
 40
2.0
100
AcDbArc
 50
269.9999999999998
 51
0.0
  0
CIRCLE
  5
3AE
330
1F
100
AcDbEntity
  8
1
  6
Continuous
 62
     7
370
     9
100
AcDbCircle
 10
740.4325214525782
 20
472.7224128012188
 30
0.0
 40
30.25
  0
CIRCLE
  5
3AF
330
1F
100
AcDbEntity
  8
1
  6
Continuous
 62
     7
370
     9
100
AcDbCircle
 10
740.4325214525782
 20
472.7224128012188
 30
0.0
 40
28.26599680162482
  0
CIRCLE
  5
3B0
330
1F
100
AcDbEntity
  8
1
  6
Continuous
 62
     7
370
     9
100
AcDbCircle
 10
740.4325214525782
 20
472.7224128012188
 30
0.0
 40
27.6825595374799
  0
CIRCLE
  5
3B1
330
1F
100
AcDbEntity
  8
1
  6
Continuous
 62
     7
370
     9
100
AcDbCircle
 10
740.4325214525782
 20
472.7224128012188
 30
0.0
 40
35.5
  0
MTEXT
  5
3B2
330
1F
100
AcDbEntity
  8
1
  6
Continuous
 62
     7
370
     9
100
AcDbMText
 10
684.9325214525782
 20
275.2224128012188
 30
0.0
 40
25.0
 41
60.8546046046046
 46
25.0
 71
     8
 72
     1
  1
{\fＭＳ 明朝;\T0.750000;50A}
 73
     1
 44
1.0
1001
ACAD
1000
ACAD_MTEXT_DEFINED_HEIGHT_BEGIN
1070
    46
1040
25.0
1000
ACAD_MTEXT_DEFINED_HEIGHT_END
  0
LINE
  5
3B3
330
1F
100
AcDbEntity
  8
1
  6
Continuous
 62
     7
370
     9
100
AcDbLine
 10
1004.432521452578
 20
397.6224128012188
 30
0.0
 11
1004.432521452578
 21
309.1224128012188
 31
0.0
  0
LINE
  5
3B4
330
1F
100
AcDbEntity
  8
1
  6
Continuous
 62
     7
370
     9
100
AcDbLine
 10
1002.832521452578
 20
396.0224128012189
 30
0.0
 11
1002.832521452578
 21
310.7224128012188
 31
0.0
  0
LINE
  5
3B5
330
1F
100
AcDbEntity
  8
1
  6
Continuous
 62
     7
370
     9
100
AcDbLine
 10
885.4325214525782
 20
397.6224128012188
 30
0.0
 11
877.9325214525782
 21
397.6224128012188
 31
0.0
  0
LINE
  5
3B6
330
1F
100
AcDbEntity
  8
1
  6
Continuous
 62
     7
370
     9
100
AcDbLine
 10
933.5219999921014
 20
310.7224128012188
 30
0.0
 11
887.0325214525782
 21
310.7224128012188
 31
0.0
  0
LINE
  5
3B7
330
1F
100
AcDbEntity
  8
1
  6
Continuous
 62
     7
370
     9
100
AcDbLine
 10
875.9325214525782
 20
395.5224128012189
 30
0.0
 11
875.9325214525782
 21
311.1224128012188
 31
0.0
  0
LINE
  5
3B8
330
1F
100
AcDbEntity
  8
1
  6
Continuous
 62
     7
370
     9
100
AcDbLine
 10
887.0325214525782
 20
310.7224128012188
 30
0.0
 11
885.4325214525783
 21
309.1224128012188
 31
0.0
  0
LINE
  5
3B9
330
1F
100
AcDbEntity
  8
1
  6
Continuous
 62
     7
370
     9
100
AcDbLine
 10
885.4325214525782
 20
397.6224128012188
 30
0.0
 11
885.4325214525782
 21
309.1224128012188
 31
0.0
  0
LINE
  5
3BA
330
1F
100
AcDbEntity
  8
1
  6
Continuous
 62
     7
370
     9
100
AcDbLine
 10
885.4325214525782
 20
309.1224128012188
 30
0.0
 11
877.9325214525782
 21
309.1224128012188
 31
0.0
  0
LINE
  5
3BB
330
1F
100
AcDbEntity
  8
1
  6
Continuous
 62
     7
370
     9
100
AcDbLine
 10
887.0325214525782
 20
396.0224128012189
 30
0.0
 11
887.0325214525782
 21
310.7224128012188
 31
0.0
  0
LINE
  5
3BC
330
1F
100
AcDbEntity
  8
1
  6
Continuous
 62
     7
370
     9
100
AcDbLine
 10
1004.432521452578
 20
397.6224128012188
 30
0.0
 11
1011.932521452578
 21
397.6224128012188
 31
0.0
  0
LINE
  5
3BD
330
1F
100
AcDbEntity
  8
1
  6
Continuous
 62
     7
370
     9
100
AcDbLine
 10
887.0325214525782
 20
396.0224128012189
 30
0.0
 11
933.5219999921014
 21
396.0224128012189
 31
0.0
  0
LINE
  5
3BE
330
1F
100
AcDbEntity
  8
1
  6
Continuous
 62
     7
370
     9
100
AcDbLine
 10
887.0325214525782
 20
396.0224128012188
 30
0.0
 11
885.4325214525782
 21
397.6224128012188
 31
0.0
  0
LINE
  5
3BF
330
1F
100
AcDbEntity
  8
1
  6
Continuous
 62
     7
370
     9
100
AcDbLine
 10
956.3430429130549
 20
310.7224128012188
 30
0.0
 11
1002.832521452578
 21
310.7224128012188
 31
0.0
  0
LINE
  5
3C0
330
1F
100
AcDbEntity
  8
1
  6
Continuous
 62
     7
370
     9
100
AcDbLine
 10
1013.932521452578
 20
395.5224128012189
 30
0.0
 11
1013.932521452578
 21
311.1224128012188
 31
0.0
  0
LINE
  5
3C1
330
1F
100
AcDbEntity
  8
1
  6
Continuous
 62
     7
370
     9
100
AcDbLine
 10
1002.832521452578
 20
310.7224128012188
 30
0.0
 11
1004.432521452578
 21
309.1224128012188
 31
0.0
  0
LINE
  5
3C2
330
1F
100
AcDbEntity
  8
1
  6
Continuous
 62
     7
370
     9
100
AcDbLine
 10
1004.432521452578
 20
309.1224128012188
 30
0.0
 11
1011.932521452578
 21
309.1224128012188
 31
0.0
  0
LINE
  5
3C3
330
1F
100
AcDbEntity
  8
1
  6
Continuous
 62
     7
370
     9
100
AcDbLine
 10
1002.832521452578
 20
396.0224128012188
 30
0.0
 11
1004.432521452578
 21
397.6224128012188
 31
0.0
  0
LINE
  5
3C4
330
1F
100
AcDbEntity
  8
1
  6
Continuous
 62
     7
370
     9
100
AcDbLine
 10
956.3430429130549
 20
396.0224128012189
 30
0.0
 11
1002.832521452578
 21
396.0224128012189
 31
0.0
  0
ARC
  5
3C5
330
1F
100
AcDbEntity
  8
1
  6
Continuous
 62
     7
370
     9
100
AcDbCircle
 10
877.9325214525782
 20
311.1224128012188
 30
0.0
 40
2.0
100
AcDbArc
 50
179.9999999999998
 51
269.9999999999998
  0
ARC
  5
3C6
330
1F
100
AcDbEntity
  8
1
  6
Continuous
 62
     7
370
     9
100
AcDbCircle
 10
1011.932521452578
 20
311.1224128012188
 30
0.0
 40
2.0
100
AcDbArc
 50
269.9999999999998
 51
0.0
  0
ARC
  5
3C7
330
1F
100
AcDbEntity
  8
1
  6
Continuous
 62
     7
370
     9
100
AcDbCircle
 10
877.9325214525782
 20
395.6224128012188
 30
0.0
 40
2.0
100
AcDbArc
 50
89.99999999999991
 51
179.9999999999998
  0
ARC
  5
3C8
330
1F
100
AcDbEntity
  8
1
  6
Continuous
 62
     7
370
     9
100
AcDbCircle
 10
1011.932521452578
 20
395.6224128012188
 30
0.0
 40
2.0
100
AcDbArc
 50
0.0
 51
89.99999999999991
  0
CIRCLE
  5
3C9
330
1F
100
AcDbEntity
  8
1
  6
Continuous
 62
     7
370
     9
100
AcDbCircle
 10
944.9325214525782
 20
353.3724128012188
 30
0.0
 40
38.04999999999998
  0
CIRCLE
  5
3CA
330
1F
100
AcDbEntity
  8
1
  6
Continuous
 62
     7
370
     9
100
AcDbCircle
 10
944.9325214525782
 20
353.3724128012188
 30
0.0
 40
37.04637499999995
  0
CIRCLE
  5
3CB
330
1F
100
AcDbEntity
  8
1
  6
Continuous
 62
     7
370
     9
100
AcDbCircle
 10
944.9325214525782
 20
353.3724128012188
 30
0.0
 40
44.15000000000001
  0
CIRCLE
  5
3CC
330
1F
100
AcDbEntity
  8
1
  6
Continuous
 62
     7
370
     9
100
AcDbCircle
 10
944.9325214525782
 20
353.3724128012188
 30
0.0
 40
35.567375
  0
LINE
  5
3CD
330
1F
100
AcDbEntity
  8
1
  6
Continuous
 62
     7
370
     9
100
AcDbLine
 10
989.182521452578
 20
437.1224128012188
 30
0.0
 11
989.182521452578
 21
429.6224128012188
 31
0.0
  0
LINE
  5
3CE
330
1F
100
AcDbEntity
  8
1
  6
Continuous
 62
     7
370
     9
100
AcDbLine
 10
902.682521452578
 20
427.6224128012188
 30
0.0
 11
987.1825214525782
 21
427.6224128012188
 31
0.0
  0
LINE
  5
3CF
330
1F
100
AcDbEntity
  8
1
  6
Continuous
 62
     7
370
     9
100
AcDbLine
 10
1002.832521452578
 20
539.2724128012187
 30
0.0
 11
1004.432521452578
 21
540.8724128012186
 31
0.0
  0
LINE
  5
3D0
330
1F
100
AcDbEntity
  8
1
  6
Continuous
 62
     7
370
     9
100
AcDbLine
 10
1004.432521452578
 20
452.3724128012188
 30
0.0
 11
1011.932521452578
 21
452.3724128012188
 31
0.0
  0
LINE
  5
3D1
330
1F
100
AcDbEntity
  8
1
  6
Continuous
 62
     7
370
     9
100
AcDbLine
 10
900.682521452578
 20
437.1224128012188
 30
0.0
 11
900.682521452578
 21
429.6224128012188
 31
0.0
  0
LINE
  5
3D2
330
1F
100
AcDbEntity
  8
1
  6
Continuous
 62
     7
370
     9
100
AcDbLine
 10
987.582521452578
 20
438.7224128012187
 30
0.0
 11
989.182521452578
 21
437.1224128012188
 31
0.0
  0
LINE
  5
3D3
330
1F
100
AcDbEntity
  8
1
  6
Continuous
 62
     7
370
     9
100
AcDbLine
 10
902.2825214525781
 20
438.7224128012187
 30
0.0
 11
900.6825214525782
 21
437.1224128012188
 31
0.0
  0
LINE
  5
3D4
330
1F
100
AcDbEntity
  8
1
  6
Continuous
 62
     7
370
     9
100
AcDbLine
 10
902.2825214525782
 20
447.4724128012188
 30
0.0
 11
902.2825214525782
 21
438.7224128012188
 31
0.0
  0
LINE
  5
3D5
330
1F
100
AcDbEntity
  8
1
  6
Continuous
 62
     7
370
     9
100
AcDbLine
 10
987.5825214525781
 20
447.4724128012188
 30
0.0
 11
987.5825214525781
 21
438.7224128012186
 31
0.0
  0
LINE
  5
3D6
330
1F
100
AcDbEntity
  8
1
  6
Continuous
 62
     7
370
     9
100
AcDbLine
 10
1002.832521452578
 20
453.9724128012188
 30
0.0
 11
1004.432521452578
 21
452.3724128012188
 31
0.0
  0
LINE
  5
3D7
330
1F
100
AcDbEntity
  8
1
  6
Continuous
 62
     7
370
     9
100
AcDbLine
 10
1013.932521452578
 20
538.7724128012187
 30
0.0
 11
1013.932521452578
 21
454.3724128012188
 31
0.0
  0
LINE
  5
3D8
330
1F
100
AcDbEntity
  8
1
  6
Continuous
 62
     7
370
     9
100
AcDbLine
 10
994.0825214525781
 20
453.9724128012188
 30
0.0
 11
1002.832521452578
 21
453.9724128012188
 31
0.0
  0
LINE
  5
3D9
330
1F
100
AcDbEntity
  8
1
  6
Continuous
 62
     7
370
     9
100
AcDbLine
 10
887.0325214525782
 20
539.2724128012187
 30
0.0
 11
885.4325214525782
 21
540.8724128012188
 31
0.0
  0
LINE
  5
3DA
330
1F
100
AcDbEntity
  8
1
  6
Continuous
 62
     7
370
     9
100
AcDbLine
 10
887.0325214525782
 20
539.2724128012187
 30
0.0
 11
1002.832521452578
 21
539.2724128012187
 31
0.0
  0
LINE
  5
3DB
330
1F
100
AcDbEntity
  8
1
  6
Continuous
 62
     7
370
     9
100
AcDbLine
 10
1004.432521452578
 20
540.8724128012188
 30
0.0
 11
1011.932521452578
 21
540.8724128012188
 31
0.0
  0
LINE
  5
3DC
330
1F
100
AcDbEntity
  8
1
  6
Continuous
 62
     7
370
     9
100
AcDbLine
 10
887.0325214525782
 20
539.2724128012187
 30
0.0
 11
887.0325214525782
 21
453.9724128012188
 31
0.0
  0
LINE
  5
3DD
330
1F
100
AcDbEntity
  8
1
  6
Continuous
 62
     7
370
     9
100
AcDbLine
 10
885.4325214525782
 20
452.3724128012188
 30
0.0
 11
877.9325214525782
 21
452.3724128012188
 31
0.0
  0
LINE
  5
3DE
330
1F
100
AcDbEntity
  8
1
  6
Continuous
 62
     7
370
     9
100
AcDbLine
 10
885.4325214525782
 20
540.8724128012188
 30
0.0
 11
885.4325214525782
 21
452.3724128012188
 31
0.0
  0
LINE
  5
3DF
330
1F
100
AcDbEntity
  8
1
  6
Continuous
 62
     7
370
     9
100
AcDbLine
 10
887.0325214525782
 20
453.9724128012188
 30
0.0
 11
885.4325214525783
 21
452.3724128012188
 31
0.0
  0
LINE
  5
3E0
330
1F
100
AcDbEntity
  8
1
  6
Continuous
 62
     7
370
     9
100
AcDbLine
 10
875.9325214525782
 20
538.7724128012187
 30
0.0
 11
875.9325214525782
 21
454.3724128012188
 31
0.0
  0
LINE
  5
3E1
330
1F
100
AcDbEntity
  8
1
  6
Continuous
 62
     7
370
     9
100
AcDbLine
 10
895.7825214525782
 20
453.9724128012188
 30
0.0
 11
887.0325214525782
 21
453.9724128012188
 31
0.0
  0
LINE
  5
3E2
330
1F
100
AcDbEntity
  8
1
  6
Continuous
 62
     7
370
     9
100
AcDbLine
 10
885.4325214525782
 20
540.8724128012188
 30
0.0
 11
877.9325214525782
 21
540.8724128012188
 31
0.0
  0
LINE
  5
3E3
330
1F
100
AcDbEntity
  8
1
  6
Continuous
 62
     7
370
     9
100
AcDbLine
 10
900.682521452578
 20
437.1224128012188
 30
0.0
 11
989.182521452578
 21
437.1224128012188
 31
0.0
  0
LINE
  5
3E4
330
1F
100
AcDbEntity
  8
1
  6
Continuous
 62
     7
370
     9
100
AcDbLine
 10
1002.832521452578
 20
539.2724128012187
 30
0.0
 11
1002.832521452578
 21
453.9724128012188
 31
0.0
  0
LINE
  5
3E5
330
1F
100
AcDbEntity
  8
1
  6
Continuous
 62
     7
370
     9
100
AcDbLine
 10
902.2825214525782
 20
438.7224128012187
 30
0.0
 11
987.5825214525781
 21
438.7224128012187
 31
0.0
  0
LINE
  5
3E6
330
1F
100
AcDbEntity
  8
1
  6
Continuous
 62
     7
370
     9
100
AcDbLine
 10
1004.432521452578
 20
540.8724128012188
 30
0.0
 11
1004.432521452578
 21
452.3724128012188
 31
0.0
  0
LINE
  5
3E7
330
1F
100
AcDbEntity
  8
1
  6
Continuous
 62
     7
370
     9
100
AcDbLine
 10
902.2825214525782
 20
453.9724128012188
 30
0.0
 11
942.6344244137218
 21
494.3243157623625
 31
0.0
  0
LINE
  5
3E8
330
1F
100
AcDbEntity
  8
1
  6
Continuous
 62
     7
370
     9
100
AcDbLine
 10
987.5825214525781
 20
453.9724128012188
 30
0.0
 11
947.2306184914345
 21
494.3243157623625
 31
0.0
  0
ARC
  5
3E9
330
1F
100
AcDbEntity
  8
1
  6
Continuous
 62
     7
370
     9
100
AcDbCircle
 10
1011.932521452578
 20
538.8724128012188
 30
0.0
 40
2.0
100
AcDbArc
 50
0.0
 51
89.99999999999991
  0
ARC
  5
3EA
330
1F
100
AcDbEntity
  8
1
  6
Continuous
 62
     7
370
     9
100
AcDbCircle
 10
895.7825214525782
 20
447.4724128012188
 30
0.0
 40
6.5
100
AcDbArc
 50
0.0
 51
89.99999999999991
  0
ARC
  5
3EB
330
1F
100
AcDbEntity
  8
1
  6
Continuous
 62
     7
370
     9
100
AcDbCircle
 10
987.182521452578
 20
429.6224128012188
 30
0.0
 40
2.0
100
AcDbArc
 50
269.9999999999998
 51
0.0
  0
ARC
  5
3EC
330
1F
100
AcDbEntity
  8
1
  6
Continuous
 62
     7
370
     9
100
AcDbCircle
 10
994.0825214525781
 20
447.4724128012188
 30
0.0
 40
6.5
100
AcDbArc
 50
89.99999999999991
 51
179.9999999999998
  0
ARC
  5
3ED
330
1F
100
AcDbEntity
  8
1
  6
Continuous
 62
     7
370
     9
100
AcDbCircle
 10
902.682521452578
 20
429.6224128012188
 30
0.0
 40
2.0
100
AcDbArc
 50
179.9999999999998
 51
269.9999999999998
  0
ARC
  5
3EE
330
1F
100
AcDbEntity
  8
1
  6
Continuous
 62
     7
370
     9
100
AcDbCircle
 10
877.9325214525782
 20
538.8724128012188
 30
0.0
 40
2.0
100
AcDbArc
 50
89.99999999999991
 51
179.9999999999998
  0
ARC
  5
3EF
330
1F
100
AcDbEntity
  8
1
  6
Continuous
 62
     7
370
     9
100
AcDbCircle
 10
1011.932521452578
 20
454.3724128012188
 30
0.0
 40
2.0
100
AcDbArc
 50
269.9999999999998
 51
0.0
  0
ARC
  5
3F0
330
1F
100
AcDbEntity
  8
1
  6
Continuous
 62
     7
370
     9
100
AcDbCircle
 10
877.9325214525782
 20
454.3724128012188
 30
0.0
 40
2.0
100
AcDbArc
 50
179.9999999999998
 51
269.9999999999998
  0
LINE
  5
3F1
330
1F
100
AcDbEntity
  8
1
  6
Continuous
 62
     7
370
     9
100
AcDbLine
 10
1045.432521452578
 20
438.6224128012188
 30
0.0
 11
1130.732521452578
 21
438.6224128012188
 31
0.0
  0
LINE
  5
3F2
330
1F
100
AcDbEntity
  8
1
  6
Continuous
 62
     7
370
     9
100
AcDbLine
 10
1130.732521452578
 20
485.2118913407421
 30
0.0
 11
1130.732521452578
 21
438.6224128012188
 31
0.0
  0
LINE
  5
3F3
330
1F
100
AcDbEntity
  8
1
  6
Continuous
 62
     7
370
     9
100
AcDbLine
 10
1132.232521452578
 20
437.1224128012187
 30
0.0
 11
1130.732521452578
 21
438.6224128012188
 31
0.0
  0
LINE
  5
3F4
330
1F
100
AcDbEntity
  8
1
  6
Continuous
 62
     7
370
     9
100
AcDbLine
 10
1043.932521452578
 20
437.1224128012188
 30
0.0
 11
1043.932521452578
 21
429.6224128012188
 31
0.0
  0
LINE
  5
3F5
330
1F
100
AcDbEntity
  8
1
  6
Continuous
 62
     7
370
     9
100
AcDbLine
 10
1132.232521452578
 20
437.1224128012188
 30
0.0
 11
1132.232521452578
 21
429.6224128012188
 31
0.0
  0
LINE
  5
3F6
330
1F
100
AcDbEntity
  8
1
  6
Continuous
 62
     7
370
     9
100
AcDbLine
 10
1043.932521452578
 20
437.1224128012188
 30
0.0
 11
1132.232521452578
 21
437.1224128012188
 31
0.0
  0
LINE
  5
3F7
330
1F
100
AcDbEntity
  8
1
  6
Continuous
 62
     7
370
     9
100
AcDbLine
 10
1043.932521452578
 20
437.1224128012188
 30
0.0
 11
1045.432521452578
 21
438.6224128012188
 31
0.0
  0
LINE
  5
3F8
330
1F
100
AcDbEntity
  8
1
  6
Continuous
 62
     7
370
     9
100
AcDbLine
 10
1045.432521452578
 20
485.2118913407421
 30
0.0
 11
1045.432521452578
 21
438.6224128012188
 31
0.0
  0
LINE
  5
3F9
330
1F
100
AcDbEntity
  8
1
  6
Continuous
 62
     7
370
     9
100
AcDbLine
 10
1045.932521452578
 20
427.6224128012188
 30
0.0
 11
1130.232521452578
 21
427.6224128012188
 31
0.0
  0
ARC
  5
3FA
330
1F
100
AcDbEntity
  8
1
  6
Continuous
 62
     7
370
     9
100
AcDbCircle
 10
1045.932521452578
 20
429.6224128012188
 30
0.0
 40
2.0
100
AcDbArc
 50
179.9999999999998
 51
269.9999999999998
  0
CIRCLE
  5
3FB
330
1F
100
AcDbEntity
  8
1
  6
Continuous
 62
     7
370
     9
100
AcDbCircle
 10
1088.082521452578
 20
496.6224128012188
 30
0.0
 40
35.567375
  0
CIRCLE
  5
3FC
330
1F
100
AcDbEntity
  8
1
  6
Continuous
 62
     7
370
     9
100
AcDbCircle
 10
1088.082521452578
 20
496.6224128012188
 30
0.0
 40
44.15000000000001
  0
CIRCLE
  5
3FD
330
1F
100
AcDbEntity
  8
1
  6
Continuous
 62
     7
370
     9
100
AcDbCircle
 10
1088.082521452578
 20
496.6224128012188
 30
0.0
 40
37.04637499999995
  0
ARC
  5
3FE
330
1F
100
AcDbEntity
  8
1
  6
Continuous
 62
     7
370
     9
100
AcDbCircle
 10
1130.232521452578
 20
429.6224128012188
 30
0.0
 40
2.0
100
AcDbArc
 50
269.9999999999998
 51
0.0
  0
CIRCLE
  5
3FF
330
1F
100
AcDbEntity
  8
1
  6
Continuous
 62
     7
370
     9
100
AcDbCircle
 10
1088.082521452578
 20
496.6224128012188
 30
0.0
 40
38.04999999999998
  0
MTEXT
  5
400
330
1F
100
AcDbEntity
  8
1
  6
Continuous
 62
     7
370
     9
100
AcDbMText
 10
1017.355711645436
 20
275.2224128012188
 30
0.0
 40
25.0
 41
61.45870870870871
 46
25.0
 71
     8
 72
     1
  1
{\fＭＳ 明朝;\T0.750000;65A}
 73
     1
 44
1.0
1001
ACAD
1000
ACAD_MTEXT_DEFINED_HEIGHT_BEGIN
1070
    46
1040
25.0
1000
ACAD_MTEXT_DEFINED_HEIGHT_END
  0
LINE
  5
401
330
1F
100
AcDbEntity
  8
1
  6
Continuous
 62
     7
370
     9
100
AcDbLine
 10
57.02704308863497
 20
690.0482115085537
 30
0.0
 11
57.02704308863497
 21
788.0482115085537
 31
0.0
  0
LINE
  5
402
330
1F
100
AcDbEntity
  8
1
  6
Continuous
 62
     7
370
     9
100
AcDbLine
 10
122.7490139308262
 20
689.5482115085537
 30
0.0
 11
69.02704308863485
 21
689.5482115085537
 31
0.0
  0
LINE
  5
403
330
1F
100
AcDbEntity
  8
1
  6
Continuous
 62
     7
370
     9
100
AcDbLine
 10
67.52704308863497
 20
688.0482115085537
 30
0.0
 11
59.02704308863485
 21
688.0482115085537
 31
0.0
  0
LINE
  5
404
330
1F
100
AcDbEntity
  8
1
  6
Continuous
 62
     7
370
     9
100
AcDbLine
 10
67.52704308863497
 20
790.0482115085537
 30
0.0
 11
59.02704308863485
 21
790.0482115085537
 31
0.0
  0
LINE
  5
405
330
1F
100
AcDbEntity
  8
1
  6
Continuous
 62
     7
370
     9
100
AcDbLine
 10
69.02704308863497
 20
689.5482115085537
 30
0.0
 11
67.52704308863497
 21
688.0482115085537
 31
0.0
  0
LINE
  5
406
330
1F
100
AcDbEntity
  8
1
  6
Continuous
 62
     7
370
     9
100
AcDbLine
 10
69.02704308863485
 20
788.5482115085538
 30
0.0
 11
67.52704308863485
 21
790.0482115085538
 31
0.0
  0
LINE
  5
407
330
1F
100
AcDbEntity
  8
1
  6
Continuous
 62
     7
370
     9
100
AcDbLine
 10
201.027043088635
 20
788.5482115085537
 30
0.0
 11
202.527043088635
 21
790.0482115085537
 31
0.0
  0
LINE
  5
408
330
1F
100
AcDbEntity
  8
1
  6
Continuous
 62
     7
370
     9
100
AcDbLine
 10
69.02704308863485
 20
788.5482115085537
 30
0.0
 11
122.7490139308262
 21
788.5482115085537
 31
0.0
  0
LINE
  5
409
330
1F
100
AcDbEntity
  8
1
  6
Continuous
 62
     7
370
     9
100
AcDbLine
 10
147.3050722464435
 20
689.5482115085537
 30
0.0
 11
201.0270430886349
 21
689.5482115085537
 31
0.0
  0
LINE
  5
40A
330
1F
100
AcDbEntity
  8
1
  6
Continuous
 62
     7
370
     9
100
AcDbLine
 10
202.5270430886349
 20
688.0482115085537
 30
0.0
 11
211.0270430886349
 21
688.0482115085537
 31
0.0
  0
LINE
  5
40B
330
1F
100
AcDbEntity
  8
1
  6
Continuous
 62
     7
370
     9
100
AcDbLine
 10
201.0270430886349
 20
788.5482115085537
 30
0.0
 11
201.0270430886349
 21
689.5482115085537
 31
0.0
  0
LINE
  5
40C
330
1F
100
AcDbEntity
  8
1
  6
Continuous
 62
     7
370
     9
100
AcDbLine
 10
69.02704308863485
 20
788.5482115085537
 30
0.0
 11
69.02704308863485
 21
689.5482115085537
 31
0.0
  0
LINE
  5
40D
330
1F
100
AcDbEntity
  8
1
  6
Continuous
 62
     7
370
     9
100
AcDbLine
 10
67.52704308863485
 20
790.0482115085537
 30
0.0
 11
67.52704308863485
 21
688.0482115085537
 31
0.0
  0
LINE
  5
40E
330
1F
100
AcDbEntity
  8
1
  6
Continuous
 62
     7
370
     9
100
AcDbLine
 10
202.5270430886349
 20
790.0482115085537
 30
0.0
 11
211.0270430886349
 21
790.0482115085537
 31
0.0
  0
LINE
  5
40F
330
1F
100
AcDbEntity
  8
1
  6
Continuous
 62
     7
370
     9
100
AcDbLine
 10
213.0270430886349
 20
788.0482115085537
 30
0.0
 11
213.0270430886349
 21
690.0482115085537
 31
0.0
  0
LINE
  5
410
330
1F
100
AcDbEntity
  8
1
  6
Continuous
 62
     7
370
     9
100
AcDbLine
 10
201.0270430886349
 20
689.5482115085538
 30
0.0
 11
202.5270430886347
 21
688.0482115085538
 31
0.0
  0
LINE
  5
411
330
1F
100
AcDbEntity
  8
1
  6
Continuous
 62
     7
370
     9
100
AcDbLine
 10
147.3050722464435
 20
788.5482115085537
 30
0.0
 11
201.0270430886349
 21
788.5482115085537
 31
0.0
  0
ARC
  5
412
330
1F
100
AcDbEntity
  8
1
  6
Continuous
 62
     7
370
     9
100
AcDbCircle
 10
59.02704308863485
 20
788.0482115085537
 30
0.0
 40
2.0
100
AcDbArc
 50
89.99999999999991
 51
179.9999999999998
  0
ARC
  5
413
330
1F
100
AcDbEntity
  8
1
  6
Continuous
 62
     7
370
     9
100
AcDbCircle
 10
59.02704308863485
 20
690.0482115085537
 30
0.0
 40
2.0
100
AcDbArc
 50
179.9999999999998
 51
269.9999999999998
  0
ARC
  5
414
330
1F
100
AcDbEntity
  8
1
  6
Continuous
 62
     7
370
     9
100
AcDbCircle
 10
211.0270430886349
 20
788.0482115085537
 30
0.0
 40
2.0
100
AcDbArc
 50
0.0
 51
89.99999999999991
  0
ARC
  5
415
330
1F
100
AcDbEntity
  8
1
  6
Continuous
 62
     7
370
     9
100
AcDbCircle
 10
211.0270430886349
 20
690.0482115085537
 30
0.0
 40
2.0
100
AcDbArc
 50
269.9999999999998
 51
0.0
  0
CIRCLE
  5
416
330
1F
100
AcDbEntity
  8
1
  6
Continuous
 62
     7
370
     9
100
AcDbCircle
 10
135.0270430886349
 20
739.0482115085537
 30
0.0
 40
42.03738851887277
  0
CIRCLE
  5
417
330
1F
100
AcDbEntity
  8
1
  6
Continuous
 62
     7
370
     9
100
AcDbCircle
 10
135.0270430886349
 20
739.0482115085537
 30
0.0
 40
44.40000000000001
  0
CIRCLE
  5
418
330
1F
100
AcDbEntity
  8
1
  6
Continuous
 62
     7
370
     9
100
AcDbCircle
 10
135.0270430886349
 20
739.0482115085537
 30
0.0
 40
51.0
  0
CIRCLE
  5
419
330
1F
100
AcDbEntity
  8
1
  6
Continuous
 62
     7
370
     9
100
AcDbCircle
 10
135.0270430886349
 20
739.0482115085537
 30
0.0
 40
43.51494559204352
  0
LINE
  5
41A
330
1F
100
AcDbEntity
  8
1
  6
Continuous
 62
     7
370
     9
100
AcDbLine
 10
201.0270430886349
 20
848.5482115085538
 30
0.0
 11
202.5270430886347
 21
847.0482115085539
 31
0.0
  0
LINE
  5
41B
330
1F
100
AcDbEntity
  8
1
  6
Continuous
 62
     7
370
     9
100
AcDbLine
 10
213.0270430886349
 20
947.0482115085538
 30
0.0
 11
213.0270430886349
 21
849.0482115085538
 31
0.0
  0
LINE
  5
41C
330
1F
100
AcDbEntity
  8
1
  6
Continuous
 62
     7
370
     9
100
AcDbLine
 10
202.5270430886349
 20
949.0482115085538
 30
0.0
 11
211.0270430886349
 21
949.0482115085538
 31
0.0
  0
LINE
  5
41D
330
1F
100
AcDbEntity
  8
1
  6
Continuous
 62
     7
370
     9
100
AcDbLine
 10
84.02704308863474
 20
830.5482115085538
 30
0.0
 11
84.02704308863474
 21
822.0482115085538
 31
0.0
  0
LINE
  5
41E
330
1F
100
AcDbEntity
  8
1
  6
Continuous
 62
     7
370
     9
100
AcDbLine
 10
184.0270430886349
 20
820.0482115085537
 30
0.0
 11
86.02704308863485
 21
820.0482115085537
 31
0.0
  0
LINE
  5
41F
330
1F
100
AcDbEntity
  8
1
  6
Continuous
 62
     7
370
     9
100
AcDbLine
 10
184.5270430886347
 20
832.0482115085538
 30
0.0
 11
186.0270430886346
 21
830.5482115085539
 31
0.0
  0
LINE
  5
420
330
1F
100
AcDbEntity
  8
1
  6
Continuous
 62
     7
370
     9
100
AcDbLine
 10
85.52704308863474
 20
832.0482115085537
 30
0.0
 11
84.02704308863474
 21
830.5482115085538
 31
0.0
  0
LINE
  5
421
330
1F
100
AcDbEntity
  8
1
  6
Continuous
 62
     7
370
     9
100
AcDbLine
 10
85.52704308863474
 20
840.5482128572529
 30
0.0
 11
85.52704308863474
 21
832.0482115085538
 31
0.0
  0
LINE
  5
422
330
1F
100
AcDbEntity
  8
1
  6
Continuous
 62
     7
370
     9
100
AcDbLine
 10
186.0270430886349
 20
830.5482115085538
 30
0.0
 11
186.0270430886349
 21
822.0482115085537
 31
0.0
  0
LINE
  5
423
330
1F
100
AcDbEntity
  8
1
  6
Continuous
 62
     7
370
     9
100
AcDbLine
 10
184.5270430886347
 20
840.5482115085538
 30
0.0
 11
184.5270430886347
 21
832.0482115085537
 31
0.0
  0
LINE
  5
424
330
1F
100
AcDbEntity
  8
1
  6
Continuous
 62
     7
370
     9
100
AcDbLine
 10
202.5270430886349
 20
847.0482115085538
 30
0.0
 11
211.0270430886349
 21
847.0482115085538
 31
0.0
  0
LINE
  5
425
330
1F
100
AcDbEntity
  8
1
  6
Continuous
 62
     7
370
     9
100
AcDbLine
 10
192.5270430886349
 20
848.5482115085538
 30
0.0
 11
201.0270430886349
 21
848.5482115085538
 31
0.0
  0
LINE
  5
426
330
1F
100
AcDbEntity
  8
1
  6
Continuous
 62
     7
370
     9
100
AcDbLine
 10
69.02704308863485
 20
947.5482115085538
 30
0.0
 11
201.0270430886349
 21
947.5482115085538
 31
0.0
  0
LINE
  5
427
330
1F
100
AcDbEntity
  8
1
  6
Continuous
 62
     7
370
     9
100
AcDbLine
 10
201.027043088635
 20
947.5482115085538
 30
0.0
 11
202.527043088635
 21
949.0482115085538
 31
0.0
  0
LINE
  5
428
330
1F
100
AcDbEntity
  8
1
  6
Continuous
 62
     7
370
     9
100
AcDbLine
 10
69.02704308863497
 20
848.5482115085538
 30
0.0
 11
67.52704308863497
 21
847.0482115085538
 31
0.0
  0
LINE
  5
429
330
1F
100
AcDbEntity
  8
1
  6
Continuous
 62
     7
370
     9
100
AcDbLine
 10
67.52704308863497
 20
949.0482115085538
 30
0.0
 11
59.02704308863485
 21
949.0482115085538
 31
0.0
  0
LINE
  5
42A
330
1F
100
AcDbEntity
  8
1
  6
Continuous
 62
     7
370
     9
100
AcDbLine
 10
67.52704308863497
 20
847.0482115085538
 30
0.0
 11
59.02704308863485
 21
847.0482115085538
 31
0.0
  0
LINE
  5
42B
330
1F
100
AcDbEntity
  8
1
  6
Continuous
 62
     7
370
     9
100
AcDbLine
 10
77.52704308863497
 20
848.5482115085538
 30
0.0
 11
69.02704308863485
 21
848.5482115085538
 31
0.0
  0
LINE
  5
42C
330
1F
100
AcDbEntity
  8
1
  6
Continuous
 62
     7
370
     9
100
AcDbLine
 10
69.02704308863485
 20
947.5482115085538
 30
0.0
 11
67.52704308863485
 21
949.0482115085538
 31
0.0
  0
LINE
  5
42D
330
1F
100
AcDbEntity
  8
1
  6
Continuous
 62
     7
370
     9
100
AcDbLine
 10
57.02704308863497
 20
849.0482115085538
 30
0.0
 11
57.02704308863497
 21
947.0482115085538
 31
0.0
  0
LINE
  5
42E
330
1F
100
AcDbEntity
  8
1
  6
Continuous
 62
     7
370
     9
100
AcDbLine
 10
184.0270430886349
 20
830.5482115085537
 30
0.0
 11
84.02704308863474
 21
830.5482115085537
 31
0.0
  0
LINE
  5
42F
330
1F
100
AcDbEntity
  8
1
  6
Continuous
 62
     7
370
     9
100
AcDbLine
 10
184.0270430886349
 20
832.0482115085537
 30
0.0
 11
85.52704308863474
 21
832.0482115085537
 31
0.0
  0
LINE
  5
430
330
1F
100
AcDbEntity
  8
1
  6
Continuous
 62
     7
370
     9
100
AcDbLine
 10
202.5270430886349
 20
949.0482115085538
 30
0.0
 11
202.5270430886349
 21
847.0482115085538
 31
0.0
  0
LINE
  5
431
330
1F
100
AcDbEntity
  8
1
  6
Continuous
 62
     7
370
     9
100
AcDbLine
 10
201.0270430886349
 20
947.5482115085538
 30
0.0
 11
201.0270430886349
 21
848.5482115085538
 31
0.0
  0
LINE
  5
432
330
1F
100
AcDbEntity
  8
1
  6
Continuous
 62
     7
370
     9
100
AcDbLine
 10
69.02704308863485
 20
947.5482115085538
 30
0.0
 11
69.02704308863485
 21
848.5482115085538
 31
0.0
  0
LINE
  5
433
330
1F
100
AcDbEntity
  8
1
  6
Continuous
 62
     7
370
     9
100
AcDbLine
 10
67.52704308863485
 20
949.0482115085538
 30
0.0
 11
67.52704308863485
 21
847.0482115085538
 31
0.0
  0
LINE
  5
434
330
1F
100
AcDbEntity
  8
1
  6
Continuous
 62
     7
370
     9
100
AcDbLine
 10
85.52704308863474
 20
848.5482115085538
 30
0.0
 11
132.1986159638886
 21
895.2197843838076
 31
0.0
  0
LINE
  5
435
330
1F
100
AcDbEntity
  8
1
  6
Continuous
 62
     7
370
     9
100
AcDbLine
 10
184.5270430886347
 20
848.5482115085538
 30
0.0
 11
137.8554702133811
 21
895.2197843838076
 31
0.0
  0
ARC
  5
436
330
1F
100
AcDbEntity
  8
1
  6
Continuous
 62
     7
370
     9
100
AcDbCircle
 10
86.02704308863485
 20
822.0482115085537
 30
0.0
 40
2.0
100
AcDbArc
 50
179.9999999999998
 51
269.9999999999998
  0
ARC
  5
437
330
1F
100
AcDbEntity
  8
1
  6
Continuous
 62
     7
370
     9
100
AcDbCircle
 10
211.0270430886349
 20
849.0482115085538
 30
0.0
 40
2.0
100
AcDbArc
 50
269.9999999999998
 51
0.0
  0
ARC
  5
438
330
1F
100
AcDbEntity
  8
1
  6
Continuous
 62
     7
370
     9
100
AcDbCircle
 10
192.5270430886349
 20
840.5482115085538
 30
0.0
 40
8.0
100
AcDbArc
 50
89.99999999999991
 51
180.0000000000004
  0
ARC
  5
439
330
1F
100
AcDbEntity
  8
1
  6
Continuous
 62
     7
370
     9
100
AcDbCircle
 10
184.0270430886347
 20
822.0482115085537
 30
0.0
 40
2.0
100
AcDbArc
 50
269.9999999999998
 51
0.0
  0
ARC
  5
43A
330
1F
100
AcDbEntity
  8
1
  6
Continuous
 62
     7
370
     9
100
AcDbCircle
 10
211.0270430886349
 20
947.0482115085538
 30
0.0
 40
2.0
100
AcDbArc
 50
0.0
 51
89.99999999999991
  0
ARC
  5
43B
330
1F
100
AcDbEntity
  8
1
  6
Continuous
 62
     7
370
     9
100
AcDbCircle
 10
59.02704308863485
 20
849.0482115085538
 30
0.0
 40
2.0
100
AcDbArc
 50
179.9999999999998
 51
269.9999999999998
  0
ARC
  5
43C
330
1F
100
AcDbEntity
  8
1
  6
Continuous
 62
     7
370
     9
100
AcDbCircle
 10
77.52704308863497
 20
840.5482115085538
 30
0.0
 40
8.0
100
AcDbArc
 50
0.0
 51
89.99999999999991
  0
ARC
  5
43D
330
1F
100
AcDbEntity
  8
1
  6
Continuous
 62
     7
370
     9
100
AcDbCircle
 10
59.02704308863485
 20
947.0482115085538
 30
0.0
 40
2.0
100
AcDbArc
 50
89.99999999999991
 51
179.9999999999998
  0
LINE
  5
43E
330
1F
100
AcDbEntity
  8
1
  6
Continuous
 62
     7
370
     9
100
AcDbLine
 10
245.0270430886349
 20
820.0482115085537
 30
0.0
 11
343.0270430886349
 21
820.0482115085537
 31
0.0
  0
LINE
  5
43F
330
1F
100
AcDbEntity
  8
1
  6
Continuous
 62
     7
370
     9
100
AcDbLine
 10
243.0270430886349
 20
830.5482115085537
 30
0.0
 11
345.0270430886349
 21
830.5482115085537
 31
0.0
  0
LINE
  5
440
330
1F
100
AcDbEntity
  8
1
  6
Continuous
 62
     7
370
     9
100
AcDbLine
 10
244.5270430886349
 20
885.7701823507451
 30
0.0
 11
244.5270430886349
 21
832.0482115085535
 31
0.0
  0
LINE
  5
441
330
1F
100
AcDbEntity
  8
1
  6
Continuous
 62
     7
370
     9
100
AcDbLine
 10
243.0270430886349
 20
830.5482115085535
 30
0.0
 11
243.0270430886349
 21
822.0482115085535
 31
0.0
  0
LINE
  5
442
330
1F
100
AcDbEntity
  8
1
  6
Continuous
 62
     7
370
     9
100
AcDbLine
 10
244.5270430886349
 20
832.0482115085537
 30
0.0
 11
343.5270430886349
 21
832.0482115085537
 31
0.0
  0
LINE
  5
443
330
1F
100
AcDbEntity
  8
1
  6
Continuous
 62
     7
370
     9
100
AcDbLine
 10
345.0270430886349
 20
830.5482115085535
 30
0.0
 11
345.0270430886349
 21
822.0482115085535
 31
0.0
  0
LINE
  5
444
330
1F
100
AcDbEntity
  8
1
  6
Continuous
 62
     7
370
     9
100
AcDbLine
 10
243.0270430886349
 20
830.5482115085537
 30
0.0
 11
244.5270430886349
 21
832.0482115085537
 31
0.0
  0
LINE
  5
445
330
1F
100
AcDbEntity
  8
1
  6
Continuous
 62
     7
370
     9
100
AcDbLine
 10
343.5270430886349
 20
885.7701823507451
 30
0.0
 11
343.5270430886349
 21
832.0482115085535
 31
0.0
  0
LINE
  5
446
330
1F
100
AcDbEntity
  8
1
  6
Continuous
 62
     7
370
     9
100
AcDbLine
 10
345.0270430886349
 20
830.5482115085537
 30
0.0
 11
343.527043088635
 21
832.0482115085537
 31
0.0
  0
CIRCLE
  5
447
330
1F
100
AcDbEntity
  8
1
  6
Continuous
 62
     7
370
     9
100
AcDbCircle
 10
294.0270430886349
 20
898.0482115085538
 30
0.0
 40
43.51494559204352
  0
ARC
  5
448
330
1F
100
AcDbEntity
  8
1
  6
Continuous
 62
     7
370
     9
100
AcDbCircle
 10
343.0270430886349
 20
822.0482115085537
 30
0.0
 40
2.0
100
AcDbArc
 50
269.9999999999998
 51
0.0
  0
ARC
  5
449
330
1F
100
AcDbEntity
  8
1
  6
Continuous
 62
     7
370
     9
100
AcDbCircle
 10
245.0270430886349
 20
822.0482115085537
 30
0.0
 40
2.0
100
AcDbArc
 50
180.0000000000029
 51
269.9999999999998
  0
CIRCLE
  5
44A
330
1F
100
AcDbEntity
  8
1
  6
Continuous
 62
     7
370
     9
100
AcDbCircle
 10
294.0270430886349
 20
898.0482115085538
 30
0.0
 40
51.0
  0
CIRCLE
  5
44B
330
1F
100
AcDbEntity
  8
1
  6
Continuous
 62
     7
370
     9
100
AcDbCircle
 10
294.0270430886349
 20
898.0482115085538
 30
0.0
 40
44.40000000000001
  0
CIRCLE
  5
44C
330
1F
100
AcDbEntity
  8
1
  6
Continuous
 62
     7
370
     9
100
AcDbCircle
 10
294.0270430886349
 20
898.0482115085538
 30
0.0
 40
42.03738851887279
  0
MTEXT
  5
44D
330
1F
100
AcDbEntity
  8
1
  6
Continuous
 62
     7
370
     9
100
AcDbMText
 10
213.000320962058
 20
654.0482115085537
 30
0.0
 40
25.0
 41
61.67192192192192
 46
25.0
 71
     8
 72
     1
  1
{\fＭＳ 明朝;\T0.750000;80A}
 73
     1
 44
1.0
1001
ACAD
1000
ACAD_MTEXT_DEFINED_HEIGHT_BEGIN
1070
    46
1040
25.0
1000
ACAD_MTEXT_DEFINED_HEIGHT_END
  0
LINE
  5
44E
330
1F
100
AcDbEntity
  8
1
  6
Continuous
 62
     7
370
     9
100
AcDbLine
 10
583.4325214525782
 20
688.0482115085537
 30
0.0
 11
572.9325214525782
 21
688.0482115085537
 31
0.0
  0
LINE
  5
44F
330
1F
100
AcDbEntity
  8
1
  6
Continuous
 62
     7
370
     9
100
AcDbLine
 10
585.4325214525782
 20
690.0482115085538
 30
0.0
 11
583.4325214525782
 21
688.0482115085538
 31
0.0
  0
LINE
  5
450
330
1F
100
AcDbEntity
  8
1
  6
Continuous
 62
     7
370
     9
100
AcDbLine
 10
583.4325214525782
 20
818.0482115085537
 30
0.0
 11
572.9325214525782
 21
818.0482115085537
 31
0.0
  0
LINE
  5
451
330
1F
100
AcDbEntity
  8
1
  6
Continuous
 62
     7
370
     9
100
AcDbLine
 10
585.4325214525782
 20
816.0482115085539
 30
0.0
 11
583.4325214525782
 21
818.0482115085538
 31
0.0
  0
LINE
  5
452
330
1F
100
AcDbEntity
  8
1
  6
Continuous
 62
     7
370
     9
100
AcDbLine
 10
650.9325214525782
 20
690.0482115085537
 30
0.0
 11
585.4325214525782
 21
690.0482115085537
 31
0.0
  0
LINE
  5
453
330
1F
100
AcDbEntity
  8
1
  6
Continuous
 62
     7
370
     9
100
AcDbLine
 10
762.9325214525782
 20
816.0482115085538
 30
0.0
 11
762.9325214525782
 21
690.0482115085537
 31
0.0
  0
LINE
  5
454
330
1F
100
AcDbEntity
  8
1
  6
Continuous
 62
     7
370
     9
100
AcDbLine
 10
750.4325214525782
 20
818.0482115085537
 30
0.0
 11
750.4325214525782
 21
688.0482115085537
 31
0.0
  0
LINE
  5
455
330
1F
100
AcDbEntity
  8
1
  6
Continuous
 62
     7
370
     9
100
AcDbLine
 10
748.4325214525782
 20
816.0482115085538
 30
0.0
 11
748.4325214525782
 21
690.0482115085537
 31
0.0
  0
LINE
  5
456
330
1F
100
AcDbEntity
  8
1
  6
Continuous
 62
     7
370
     9
100
AcDbLine
 10
583.4325214525782
 20
818.0482115085537
 30
0.0
 11
583.4325214525782
 21
688.0482115085537
 31
0.0
  0
LINE
  5
457
330
1F
100
AcDbEntity
  8
1
  6
Continuous
 62
     7
370
     9
100
AcDbLine
 10
585.4325214525782
 20
816.0482115085538
 30
0.0
 11
585.4325214525782
 21
690.0482115085537
 31
0.0
  0
LINE
  5
458
330
1F
100
AcDbEntity
  8
1
  6
Continuous
 62
     7
370
     9
100
AcDbLine
 10
748.4325214525782
 20
690.0482115085538
 30
0.0
 11
750.4325214525782
 21
688.0482115085538
 31
0.0
  0
LINE
  5
459
330
1F
100
AcDbEntity
  8
1
  6
Continuous
 62
     7
370
     9
100
AcDbLine
 10
748.4325214525782
 20
816.0482115085538
 30
0.0
 11
750.4325214525782
 21
818.0482115085537
 31
0.0
  0
LINE
  5
45A
330
1F
100
AcDbEntity
  8
1
  6
Continuous
 62
     7
370
     9
100
AcDbLine
 10
585.4325214525782
 20
816.0482115085538
 30
0.0
 11
650.9325214525782
 21
816.0482115085538
 31
0.0
  0
LINE
  5
45B
330
1F
100
AcDbEntity
  8
1
  6
Continuous
 62
     7
370
     9
100
AcDbLine
 10
570.9325214525782
 20
690.0482115085537
 30
0.0
 11
570.9325214525782
 21
816.0482115085537
 31
0.0
  0
LINE
  5
45C
330
1F
100
AcDbEntity
  8
1
  6
Continuous
 62
     7
370
     9
100
AcDbLine
 10
750.4325214525782
 20
818.0482115085537
 30
0.0
 11
760.9325214525782
 21
818.0482115085537
 31
0.0
  0
LINE
  5
45D
330
1F
100
AcDbEntity
  8
1
  6
Continuous
 62
     7
370
     9
100
AcDbLine
 10
750.4325214525782
 20
688.0482115085537
 30
0.0
 11
760.9325214525782
 21
688.0482115085537
 31
0.0
  0
LINE
  5
45E
330
1F
100
AcDbEntity
  8
1
  6
Continuous
 62
     7
370
     9
100
AcDbLine
 10
682.9325214525782
 20
690.0482115085537
 30
0.0
 11
748.4325214525782
 21
690.0482115085537
 31
0.0
  0
LINE
  5
45F
330
1F
100
AcDbEntity
  8
1
  6
Continuous
 62
     7
370
     9
100
AcDbLine
 10
682.9325214525782
 20
816.0482115085538
 30
0.0
 11
748.4325214525782
 21
816.0482115085538
 31
0.0
  0
ARC
  5
460
330
1F
100
AcDbEntity
  8
1
  6
Continuous
 62
     7
370
     9
100
AcDbCircle
 10
572.9325214525782
 20
816.0482115085538
 30
0.0
 40
2.0
100
AcDbArc
 50
89.99999999999991
 51
180.0000000000029
  0
ARC
  5
461
330
1F
100
AcDbEntity
  8
1
  6
Continuous
 62
     7
370
     9
100
AcDbCircle
 10
572.9325214525782
 20
690.0482115085537
 30
0.0
 40
2.0
100
AcDbArc
 50
179.9999999999998
 51
269.9999999999998
  0
ARC
  5
462
330
1F
100
AcDbEntity
  8
1
  6
Continuous
 62
     7
370
     9
100
AcDbCircle
 10
760.9325214525782
 20
816.0482115085538
 30
0.0
 40
2.0
100
AcDbArc
 50
0.0
 51
89.99999999999991
  0
ARC
  5
463
330
1F
100
AcDbEntity
  8
1
  6
Continuous
 62
     7
370
     9
100
AcDbCircle
 10
760.9325214525782
 20
690.0482115085537
 30
0.0
 40
2.0
100
AcDbArc
 50
269.9999999999998
 51
0.0
  0
CIRCLE
  5
464
330
1F
100
AcDbEntity
  8
1
  6
Continuous
 62
     7
370
     9
100
AcDbCircle
 10
666.9325214525782
 20
753.0482115085537
 30
0.0
 40
56.0399884233824
  0
CIRCLE
  5
465
330
1F
100
AcDbEntity
  8
1
  6
Continuous
 62
     7
370
     9
100
AcDbCircle
 10
666.9325214525782
 20
753.0482115085537
 30
0.0
 40
56.94999999999999
  0
CIRCLE
  5
466
330
1F
100
AcDbEntity
  8
1
  6
Continuous
 62
     7
370
     9
100
AcDbCircle
 10
666.9325214525782
 20
753.0482115085537
 30
0.0
 40
54.56243135021168
  0
CIRCLE
  5
467
330
1F
100
AcDbEntity
  8
1
  6
Continuous
 62
     7
370
     9
100
AcDbCircle
 10
666.9325214525782
 20
753.0482115085537
 30
0.0
 40
65.0
  0
LINE
  5
468
330
1F
100
AcDbEntity
  8
1
  6
Continuous
 62
     7
370
     9
100
AcDbLine
 10
739.9325214525779
 20
881.0482115085537
 30
0.0
 11
748.4325214525782
 21
881.0482115085537
 31
0.0
  0
LINE
  5
469
330
1F
100
AcDbEntity
  8
1
  6
Continuous
 62
     7
370
     9
100
AcDbLine
 10
603.9325214525779
 20
871.048214662535
 30
0.0
 11
603.9325214525779
 21
862.5482115085539
 31
0.0
  0
LINE
  5
46A
330
1F
100
AcDbEntity
  8
1
  6
Continuous
 62
     7
370
     9
100
AcDbLine
 10
750.4325214525782
 20
879.0482115085537
 30
0.0
 11
760.9325214525782
 21
879.0482115085537
 31
0.0
  0
LINE
  5
46B
330
1F
100
AcDbEntity
  8
1
  6
Continuous
 62
     7
370
     9
100
AcDbLine
 10
731.9325214525779
 20
860.5482115085534
 30
0.0
 11
731.9325214525779
 21
850.0482115085534
 31
0.0
  0
LINE
  5
46C
330
1F
100
AcDbEntity
  8
1
  6
Continuous
 62
     7
370
     9
100
AcDbLine
 10
603.9325214525779
 20
862.5482115085538
 30
0.0
 11
601.9325214525779
 21
860.5482115085538
 31
0.0
  0
LINE
  5
46D
330
1F
100
AcDbEntity
  8
1
  6
Continuous
 62
     7
370
     9
100
AcDbLine
 10
601.9325214525779
 20
860.5482115085539
 30
0.0
 11
601.9325214525779
 21
850.0482115085539
 31
0.0
  0
LINE
  5
46E
330
1F
100
AcDbEntity
  8
1
  6
Continuous
 62
     7
370
     9
100
AcDbLine
 10
750.4325214525782
 20
1009.048211508554
 30
0.0
 11
760.9325214525782
 21
1009.048211508554
 31
0.0
  0
LINE
  5
46F
330
1F
100
AcDbEntity
  8
1
  6
Continuous
 62
     7
370
     9
100
AcDbLine
 10
729.9325214525779
 20
862.5482115085535
 30
0.0
 11
731.9325214525779
 21
860.5482115085535
 31
0.0
  0
LINE
  5
470
330
1F
100
AcDbEntity
  8
1
  6
Continuous
 62
     7
370
     9
100
AcDbLine
 10
570.9325214525782
 20
881.0482115085535
 30
0.0
 11
570.9325214525782
 21
1007.048211508554
 31
0.0
  0
LINE
  5
471
330
1F
100
AcDbEntity
  8
1
  6
Continuous
 62
     7
370
     9
100
AcDbLine
 10
585.4325214525782
 20
1007.048211508554
 30
0.0
 11
748.4325214525782
 21
1007.048211508554
 31
0.0
  0
LINE
  5
472
330
1F
100
AcDbEntity
  8
1
  6
Continuous
 62
     7
370
     9
100
AcDbLine
 10
729.9325214525779
 20
871.0482115085537
 30
0.0
 11
729.9325214525779
 21
862.5482115085534
 31
0.0
  0
LINE
  5
473
330
1F
100
AcDbEntity
  8
1
  6
Continuous
 62
     7
370
     9
100
AcDbLine
 10
748.4325214525782
 20
1007.048211508554
 30
0.0
 11
750.4325214525782
 21
1009.048211508554
 31
0.0
  0
LINE
  5
474
330
1F
100
AcDbEntity
  8
1
  6
Continuous
 62
     7
370
     9
100
AcDbLine
 10
748.4325214525782
 20
881.0482115085538
 30
0.0
 11
750.4325214525782
 21
879.0482115085538
 31
0.0
  0
LINE
  5
475
330
1F
100
AcDbEntity
  8
1
  6
Continuous
 62
     7
370
     9
100
AcDbLine
 10
729.9325214525782
 20
848.0482115085537
 30
0.0
 11
603.9325214525782
 21
848.0482115085537
 31
0.0
  0
LINE
  5
476
330
1F
100
AcDbEntity
  8
1
  6
Continuous
 62
     7
370
     9
100
AcDbLine
 10
762.9325214525782
 20
1007.048211508554
 30
0.0
 11
762.9325214525782
 21
881.0482115085537
 31
0.0
  0
LINE
  5
477
330
1F
100
AcDbEntity
  8
1
  6
Continuous
 62
     7
370
     9
100
AcDbLine
 10
593.9325214525784
 20
881.0482115085537
 30
0.0
 11
585.4325214525782
 21
881.0482115085537
 31
0.0
  0
LINE
  5
478
330
1F
100
AcDbEntity
  8
1
  6
Continuous
 62
     7
370
     9
100
AcDbLine
 10
585.4325214525782
 20
1007.048211508554
 30
0.0
 11
583.4325214525782
 21
1009.048211508554
 31
0.0
  0
LINE
  5
479
330
1F
100
AcDbEntity
  8
1
  6
Continuous
 62
     7
370
     9
100
AcDbLine
 10
583.4325214525782
 20
1009.048211508554
 30
0.0
 11
572.9325214525782
 21
1009.048211508554
 31
0.0
  0
LINE
  5
47A
330
1F
100
AcDbEntity
  8
1
  6
Continuous
 62
     7
370
     9
100
AcDbLine
 10
585.4325214525782
 20
881.0482115085538
 30
0.0
 11
583.4325214525782
 21
879.0482115085538
 31
0.0
  0
LINE
  5
47B
330
1F
100
AcDbEntity
  8
1
  6
Continuous
 62
     7
370
     9
100
AcDbLine
 10
583.4325214525782
 20
879.0482115085537
 30
0.0
 11
572.9325214525782
 21
879.0482115085537
 31
0.0
  0
LINE
  5
47C
330
1F
100
AcDbEntity
  8
1
  6
Continuous
 62
     7
370
     9
100
AcDbLine
 10
731.9325214525779
 20
860.5482115085534
 30
0.0
 11
601.9325214525779
 21
860.5482115085534
 31
0.0
  0
LINE
  5
47D
330
1F
100
AcDbEntity
  8
1
  6
Continuous
 62
     7
370
     9
100
AcDbLine
 10
729.9325214525779
 20
862.5482115085534
 30
0.0
 11
603.9325214525779
 21
862.5482115085534
 31
0.0
  0
LINE
  5
47E
330
1F
100
AcDbEntity
  8
1
  6
Continuous
 62
     7
370
     9
100
AcDbLine
 10
750.4325214525782
 20
1009.048211508554
 30
0.0
 11
750.4325214525782
 21
879.0482115085537
 31
0.0
  0
LINE
  5
47F
330
1F
100
AcDbEntity
  8
1
  6
Continuous
 62
     7
370
     9
100
AcDbLine
 10
748.4325214525782
 20
1007.048211508554
 30
0.0
 11
748.4325214525782
 21
881.0482115085537
 31
0.0
  0
LINE
  5
480
330
1F
100
AcDbEntity
  8
1
  6
Continuous
 62
     7
370
     9
100
AcDbLine
 10
583.4325214525782
 20
1009.048211508554
 30
0.0
 11
583.4325214525782
 21
879.0482115085537
 31
0.0
  0
LINE
  5
481
330
1F
100
AcDbEntity
  8
1
  6
Continuous
 62
     7
370
     9
100
AcDbLine
 10
585.4325214525782
 20
1007.048211508554
 30
0.0
 11
585.4325214525782
 21
881.0482115085537
 31
0.0
  0
LINE
  5
482
330
1F
100
AcDbEntity
  8
1
  6
Continuous
 62
     7
370
     9
100
AcDbLine
 10
603.9325214525779
 20
881.0482115085537
 30
0.0
 11
663.3969875466455
 21
940.5126776026209
 31
0.0
  0
LINE
  5
483
330
1F
100
AcDbEntity
  8
1
  6
Continuous
 62
     7
370
     9
100
AcDbLine
 10
729.9325214525779
 20
881.0482115085537
 30
0.0
 11
670.4680553585108
 21
940.5126776026209
 31
0.0
  0
ARC
  5
484
330
1F
100
AcDbEntity
  8
1
  6
Continuous
 62
     7
370
     9
100
AcDbCircle
 10
603.9325214525779
 20
850.0482115085539
 30
0.0
 40
2.0
100
AcDbArc
 50
179.9999999999998
 51
269.9999999999998
  0
ARC
  5
485
330
1F
100
AcDbEntity
  8
1
  6
Continuous
 62
     7
370
     9
100
AcDbCircle
 10
760.9325214525782
 20
881.0482115085537
 30
0.0
 40
2.0
100
AcDbArc
 50
269.9999999999998
 51
0.0
  0
ARC
  5
486
330
1F
100
AcDbEntity
  8
1
  6
Continuous
 62
     7
370
     9
100
AcDbCircle
 10
760.9325214525782
 20
1007.048211508554
 30
0.0
 40
2.0
100
AcDbArc
 50
0.0
 51
89.99999999999991
  0
ARC
  5
487
330
1F
100
AcDbEntity
  8
1
  6
Continuous
 62
     7
370
     9
100
AcDbCircle
 10
729.9325214525779
 20
850.0482115085534
 30
0.0
 40
2.0
100
AcDbArc
 50
269.9999999999998
 51
0.0000000000032569
  0
ARC
  5
488
330
1F
100
AcDbEntity
  8
1
  6
Continuous
 62
     7
370
     9
100
AcDbCircle
 10
739.9325214525779
 20
871.0482115085537
 30
0.0
 40
10.0
100
AcDbArc
 50
90.00000000000132
 51
179.9999999999994
  0
ARC
  5
489
330
1F
100
AcDbEntity
  8
1
  6
Continuous
 62
     7
370
     9
100
AcDbCircle
 10
572.9325214525782
 20
881.0482115085537
 30
0.0
 40
2.0
100
AcDbArc
 50
179.9999999999998
 51
269.9999999999998
  0
ARC
  5
48A
330
1F
100
AcDbEntity
  8
1
  6
Continuous
 62
     7
370
     9
100
AcDbCircle
 10
572.9325214525782
 20
1007.048211508554
 30
0.0
 40
2.0
100
AcDbArc
 50
89.99999999999991
 51
179.9999999999998
  0
ARC
  5
48B
330
1F
100
AcDbEntity
  8
1
  6
Continuous
 62
     7
370
     9
100
AcDbCircle
 10
593.9325214525784
 20
871.0482115085537
 30
0.0
 40
10.0
100
AcDbArc
 50
0.0000000000006514
 51
89.99999999999991
  0
LINE
  5
48C
330
1F
100
AcDbEntity
  8
1
  6
Continuous
 62
     7
370
     9
100
AcDbLine
 10
794.9325214525782
 20
848.0482115085534
 30
0.0
 11
920.9325214525782
 21
848.0482115085534
 31
0.0
  0
LINE
  5
48D
330
1F
100
AcDbEntity
  8
1
  6
Continuous
 62
     7
370
     9
100
AcDbLine
 10
792.9325214525782
 20
860.5482115085534
 30
0.0
 11
922.9325214525779
 21
860.5482115085534
 31
0.0
  0
LINE
  5
48E
330
1F
100
AcDbEntity
  8
1
  6
Continuous
 62
     7
370
     9
100
AcDbLine
 10
794.9325214525782
 20
862.5482115085534
 30
0.0
 11
920.9325214525779
 21
862.5482115085534
 31
0.0
  0
LINE
  5
48F
330
1F
100
AcDbEntity
  8
1
  6
Continuous
 62
     7
370
     9
100
AcDbLine
 10
792.9325214525782
 20
860.5482115085534
 30
0.0
 11
792.9325214525782
 21
850.0482115085534
 31
0.0
  0
LINE
  5
490
330
1F
100
AcDbEntity
  8
1
  6
Continuous
 62
     7
370
     9
100
AcDbLine
 10
922.9325214525779
 20
860.5482115085534
 30
0.0
 11
922.9325214525779
 21
850.0482115085534
 31
0.0
  0
LINE
  5
491
330
1F
100
AcDbEntity
  8
1
  6
Continuous
 62
     7
370
     9
100
AcDbLine
 10
920.9325214525779
 20
928.048211508554
 30
0.0
 11
920.9325214525779
 21
862.5482115085534
 31
0.0
  0
LINE
  5
492
330
1F
100
AcDbEntity
  8
1
  6
Continuous
 62
     7
370
     9
100
AcDbLine
 10
794.9325214525782
 20
928.048211508553
 30
0.0
 11
794.9325214525782
 21
862.5482115085534
 31
0.0
  0
LINE
  5
493
330
1F
100
AcDbEntity
  8
1
  6
Continuous
 62
     7
370
     9
100
AcDbLine
 10
792.9325214525782
 20
860.5482115085534
 30
0.0
 11
794.9325214525782
 21
862.5482115085534
 31
0.0
  0
LINE
  5
494
330
1F
100
AcDbEntity
  8
1
  6
Continuous
 62
     7
370
     9
100
AcDbLine
 10
920.9325214525779
 20
862.5482115085534
 30
0.0
 11
922.9325214525779
 21
860.5482115085534
 31
0.0
  0
ARC
  5
495
330
1F
100
AcDbEntity
  8
1
  6
Continuous
 62
     7
370
     9
100
AcDbCircle
 10
794.9325214525782
 20
850.0482115085533
 30
0.0
 40
1.999999999999999
100
AcDbArc
 50
179.9999999999967
 51
269.9999999999998
  0
ARC
  5
496
330
1F
100
AcDbEntity
  8
1
  6
Continuous
 62
     7
370
     9
100
AcDbCircle
 10
920.9325214525779
 20
850.0482115085533
 30
0.0
 40
2.0
100
AcDbArc
 50
269.9999999999998
 51
0.0
  0
CIRCLE
  5
497
330
1F
100
AcDbEntity
  8
1
  6
Continuous
 62
     7
370
     9
100
AcDbCircle
 10
857.9325214525779
 20
944.0482115085537
 30
0.0
 40
65.0
  0
CIRCLE
  5
498
330
1F
100
AcDbEntity
  8
1
  6
Continuous
 62
     7
370
     9
100
AcDbCircle
 10
857.9325214525779
 20
944.0482115085537
 30
0.0
 40
54.56243135021167
  0
CIRCLE
  5
499
330
1F
100
AcDbEntity
  8
1
  6
Continuous
 62
     7
370
     9
100
AcDbCircle
 10
857.9325214525779
 20
944.0482115085537
 30
0.0
 40
56.95
  0
CIRCLE
  5
49A
330
1F
100
AcDbEntity
  8
1
  6
Continuous
 62
     7
370
     9
100
AcDbCircle
 10
857.9325214525779
 20
944.0482115085537
 30
0.0
 40
56.0399884233824
  0
MTEXT
  5
49B
330
1F
100
AcDbEntity
  8
1
  6
Continuous
 62
     7
370
     9
100
AcDbMText
 10
762.9325214525782
 20
654.0482115085537
 30
0.0
 40
25.0
 41
77.49411911911912
 46
25.0
 71
     8
 72
     1
  1
{\fＭＳ 明朝;\T0.750000;100A}
 73
     1
 44
1.0
1001
ACAD
1000
ACAD_MTEXT_DEFINED_HEIGHT_BEGIN
1070
    46
1040
25.0
1000
ACAD_MTEXT_DEFINED_HEIGHT_END
  0
LINE
  5
49C
330
1F
100
AcDbEntity
  8
7
  6
DASHDOT
 62
     4
370
     9
100
AcDbLine
 10
44.46967379865107
 20
129.8600311041991
 30
0.0
 11
87.46967379865107
 21
129.8600311041991
 31
0.0
  0
LINE
  5
49D
330
1F
100
AcDbEntity
  8
7
  6
DASHDOT
 62
     4
370
     9
100
AcDbLine
 10
65.96967378179234
 20
108.3600311041991
 30
0.0
 11
65.96967378179234
 21
139.6100311041991
 31
0.0
  0
LINE
  5
49E
330
1F
100
AcDbEntity
  8
7
  6
DASHDOT
 62
     4
370
     9
100
AcDbLine
 10
44.4696734059098
 20
85.61003110419907
 30
0.0
 11
87.4696734059098
 21
85.61003110419907
 31
0.0
  0
LINE
  5
49F
330
1F
100
AcDbEntity
  8
7
  6
DASHDOT
 62
     4
370
     9
100
AcDbLine
 10
65.96967338905107
 20
75.86003110419907
 30
0.0
 11
65.96967338905107
 21
95.36003110419907
 31
0.0
  0
LINE
  5
4A0
330
1F
100
AcDbEntity
  8
7
  6
DASHDOT
 62
     4
370
     9
100
AcDbLine
 10
98.9696734059098
 20
129.7597296622699
 30
0.0
 11
121.4696734059098
 21
129.7597296622699
 31
0.0
  0
LINE
  5
4A1
330
1F
100
AcDbEntity
  8
7
  6
DASHDOT
 62
     4
370
     9
100
AcDbLine
 10
110.2196734059098
 20
141.0097296622699
 30
0.0
 11
110.2196734059098
 21
108.3600311041991
 31
0.0
  0
LINE
  5
4A2
330
1F
100
AcDbEntity
  8
7
  6
DASHDOT
 62
     4
370
     9
100
AcDbLine
 10
191.56967340591
 20
136.860031104199
 30
0.0
 11
238.56967340591
 21
136.860031104199
 31
0.0
  0
LINE
  5
4A3
330
1F
100
AcDbEntity
  8
7
  6
DASHDOT
 62
     4
370
     9
100
AcDbLine
 10
215.06967340591
 20
113.8600311041991
 30
0.0
 11
215.06967340591
 21
148.4600311041991
 31
0.0
  0
LINE
  5
4A4
330
1F
100
AcDbEntity
  8
7
  6
DASHDOT
 62
     4
370
     9
100
AcDbLine
 10
216.46967340591
 20
75.86003110419907
 30
0.0
 11
216.46967340591
 21
99.96003110419906
 31
0.0
  0
LINE
  5
4A5
330
1F
100
AcDbEntity
  8
7
  6
DASHDOT
 62
     4
370
     9
100
AcDbLine
 10
192.96967340591
 20
88.86003110419907
 30
0.0
 11
239.96967340591
 21
88.86003110419907
 31
0.0
  0
LINE
  5
4A6
330
1F
100
AcDbEntity
  8
7
  6
DASHDOT
 62
     4
370
     9
100
AcDbLine
 10
263.06967340591
 20
147.560031104199
 30
0.0
 11
263.06967340591
 21
116.660031104199
 31
0.0
  0
LINE
  5
4A7
330
1F
100
AcDbEntity
  8
7
  6
DASHDOT
 62
     4
370
     9
100
AcDbLine
 10
252.8696734059099
 20
136.860031104199
 30
0.0
 11
273.2696734059099
 21
136.860031104199
 31
0.0
  0
LINE
  5
4A8
330
1F
100
AcDbEntity
  8
7
  6
DASHDOT
 62
     4
370
     9
100
AcDbLine
 10
375.06967340591
 20
162.0100311280409
 30
0.0
 11
375.06967340591
 21
120.2100311280409
 31
0.0
  0
LINE
  5
4A9
330
1F
100
AcDbEntity
  8
7
  6
DASHDOT
 62
     4
370
     9
100
AcDbLine
 10
348.06967340591
 20
147.2100311280409
 30
0.0
 11
402.06967340591
 21
147.2100311280409
 31
0.0
  0
LINE
  5
4AA
330
1F
100
AcDbEntity
  8
7
  6
DASHDOT
 62
     4
370
     9
100
AcDbLine
 10
429.81967340591
 20
162.9600311280409
 30
0.0
 11
429.81967340591
 21
120.2100311280409
 31
0.0
  0
LINE
  5
4AB
330
1F
100
AcDbEntity
  8
7
  6
DASHDOT
 62
     4
370
     9
100
AcDbLine
 10
414.06967340591
 20
147.2100311280409
 30
0.0
 11
445.56967340591
 21
147.2100311280409
 31
0.0
  0
LINE
  5
4AC
330
1F
100
AcDbEntity
  8
7
  6
DASHDOT
 62
     4
370
     9
100
AcDbLine
 10
348.06967340591
 20
92.46003112804092
 30
0.0
 11
402.06967340591
 21
92.46003112804092
 31
0.0
  0
LINE
  5
4AD
330
1F
100
AcDbEntity
  8
7
  6
DASHDOT
 62
     4
370
     9
100
AcDbLine
 10
375.06967340591
 20
107.2600311280409
 30
0.0
 11
375.06967340591
 21
76.71003112804092
 31
0.0
  0
LINE
  5
4AE
330
1F
100
AcDbEntity
  8
7
  6
DASHDOT
 62
     4
370
     9
100
AcDbLine
 10
548.5696734059101
 20
173.9600311041991
 30
0.0
 11
548.5696734059101
 21
125.8600311041991
 31
0.0
  0
LINE
  5
4AF
330
1F
100
AcDbEntity
  8
7
  6
DASHDOT
 62
     4
370
     9
100
AcDbLine
 10
517.5696734059101
 20
156.8600311041991
 30
0.0
 11
579.5696734059101
 21
156.8600311041991
 31
0.0
  0
LINE
  5
4B0
330
1F
100
AcDbEntity
  8
7
  6
DASHDOT
 62
     4
370
     9
100
AcDbLine
 10
609.5696734059102
 20
174.8600311041991
 30
0.0
 11
609.5696734059102
 21
125.860031104199
 31
0.0
  0
LINE
  5
4B1
330
1F
100
AcDbEntity
  8
7
  6
DASHDOT
 62
     4
370
     9
100
AcDbLine
 10
591.5696734059102
 20
156.8600311041991
 30
0.0
 11
627.5696734059102
 21
156.8600311041991
 31
0.0
  0
LINE
  5
4B2
330
1F
100
AcDbEntity
  8
7
  6
DASHDOT
 62
     4
370
     9
100
AcDbLine
 10
517.5696734059101
 20
95.86003110419907
 30
0.0
 11
579.5696734059101
 21
95.86003110419907
 31
0.0
  0
LINE
  5
4B3
330
1F
100
AcDbEntity
  8
7
  6
DASHDOT
 62
     4
370
     9
100
AcDbLine
 10
548.5696734059101
 20
113.8600311041991
 30
0.0
 11
548.5696734059101
 21
77.86003110419907
 31
0.0
  0
LINE
  5
4B4
330
1F
100
AcDbEntity
  8
7
  6
DASHDOT
 62
     4
370
     9
100
AcDbLine
 10
699.5696734059104
 20
172.3600311041992
 30
0.0
 11
771.5696734059105
 21
172.3600311041992
 31
0.0
  0
LINE
  5
4B5
330
1F
100
AcDbEntity
  8
7
  6
DASHDOT
 62
     4
370
     9
100
AcDbLine
 10
735.5696734059104
 20
192.6100311041992
 30
0.0
 11
735.5696734059104
 21
136.3600311041991
 31
0.0
  0
LINE
  5
4B6
330
1F
100
AcDbEntity
  8
7
  6
DASHDOT
 62
     4
370
     9
100
AcDbLine
 10
735.5696734059104
 20
123.6100311041991
 30
0.0
 11
735.5696734059104
 21
82.36003110419907
 31
0.0
  0
LINE
  5
4B7
330
1F
100
AcDbEntity
  8
7
  6
DASHDOT
 62
     4
370
     9
100
AcDbLine
 10
699.5696734059104
 20
103.3600311041991
 30
0.0
 11
771.6561944378327
 21
103.3600311041991
 31
0.0
  0
LINE
  5
4B8
330
1F
100
AcDbEntity
  8
7
  6
DASHDOT
 62
     4
370
     9
100
AcDbLine
 10
699.5696734059104
 20
172.3600311041992
 30
0.0
 11
771.5696734059105
 21
172.3600311041992
 31
0.0
  0
LINE
  5
4B9
330
1F
100
AcDbEntity
  8
7
  6
DASHDOT
 62
     4
370
     9
100
AcDbLine
 10
699.5696734059104
 20
172.3600311041992
 30
0.0
 11
771.5696734059105
 21
172.3600311041992
 31
0.0
  0
LINE
  5
4BA
330
1F
100
AcDbEntity
  8
7
  6
DASHDOT
 62
     4
370
     9
100
AcDbLine
 10
804.5696734059106
 20
193.3600311041992
 30
0.0
 11
804.5696734059106
 21
136.3600311041992
 31
0.0
  0
LINE
  5
4BB
330
1F
100
AcDbEntity
  8
7
  6
DASHDOT
 62
     4
370
     9
100
AcDbLine
 10
783.5696734059106
 20
172.3600311041992
 30
0.0
 11
825.5696734059106
 21
172.3600311041992
 31
0.0
  0
LINE
  5
4BC
330
1F
100
AcDbEntity
  8
7
  6
DASHDOT
 62
     4
370
     9
100
AcDbLine
 10
897.3196734059106
 20
184.3600302090228
 30
0.0
 11
981.3196734059106
 21
184.3600302090228
 31
0.0
  0
LINE
  5
4BD
330
1F
100
AcDbEntity
  8
7
  6
DASHDOT
 62
     4
370
     9
100
AcDbLine
 10
939.3196734059106
 20
142.3600302090228
 30
0.0
 11
939.3196734059106
 21
208.0600302090228
 31
0.0
  0
LINE
  5
4BE
330
1F
100
AcDbEntity
  8
7
  6
DASHDOT
 62
     4
370
     9
100
AcDbLine
 10
897.3196734059106
 20
105.8600311041991
 30
0.0
 11
981.3196734059106
 21
105.8600311041991
 31
0.0
  0
LINE
  5
4BF
330
1F
100
AcDbEntity
  8
7
  6
DASHDOT
 62
     4
370
     9
100
AcDbLine
 10
939.3196734059106
 20
130.3600311041991
 30
0.0
 11
939.3196734059106
 21
81.36003110419907
 31
0.0
  0
LINE
  5
4C0
330
1F
100
AcDbEntity
  8
7
  6
DASHDOT
 62
     4
370
     9
100
AcDbLine
 10
1017.819673405911
 20
208.8600311041991
 30
0.0
 11
1017.819673405911
 21
142.3600311041984
 31
0.0
  0
LINE
  5
4C1
330
1F
100
AcDbEntity
  8
7
  6
DASHDOT
 62
     4
370
     9
100
AcDbLine
 10
993.3196734059106
 20
184.3600311041991
 30
0.0
 11
1042.319673405911
 21
184.3600311041991
 31
0.0
  0
LINE
  5
4C2
330
1F
100
AcDbEntity
  8
7
  6
DASHDOT
 62
     4
370
     9
100
AcDbLine
 10
29.43252145257806
 20
435.8224128250607
 30
0.0
 11
129.432521452578
 21
435.8224128250607
 31
0.0
  0
LINE
  5
4C3
330
1F
100
AcDbEntity
  8
7
  6
DASHDOT
 62
     4
370
     9
100
AcDbLine
 10
79.43252145257806
 20
385.8224128250607
 30
0.0
 11
79.43252145257806
 21
464.3224128250607
 31
0.0
  0
LINE
  5
4C4
330
1F
100
AcDbEntity
  8
7
  6
DASHDOT
 62
     4
370
     9
100
AcDbLine
 10
141.432521452578
 20
435.8224128250607
 30
0.0
 11
200.4325214525781
 21
435.8224128250607
 31
0.0
  0
LINE
  5
4C5
330
1F
100
AcDbEntity
  8
7
  6
DASHDOT
 62
     4
370
     9
100
AcDbLine
 10
170.932521452578
 20
385.8224128250607
 30
0.0
 11
170.932521452578
 21
465.3224128250607
 31
0.0
  0
LINE
  5
4C6
330
1F
100
AcDbEntity
  8
7
  6
DASHDOT
 62
     4
370
     9
100
AcDbLine
 10
79.43252145257806
 20
314.8224128250607
 30
0.0
 11
79.43252145257806
 21
372.8224128250607
 31
0.0
  0
LINE
  5
4C7
330
1F
100
AcDbEntity
  8
7
  6
DASHDOT
 62
     4
370
     9
100
AcDbLine
 10
29.43252145257806
 20
344.3224128250607
 30
0.0
 11
129.432521452578
 21
344.3224128250607
 31
0.0
  0
LINE
  5
4C8
330
1F
100
AcDbEntity
  8
7
  6
DASHDOT
 62
     4
370
     9
100
AcDbLine
 10
344.4325214525782
 20
469.2224128012188
 30
0.0
 11
344.4325214525782
 21
385.4724128012188
 31
0.0
  0
LINE
  5
4C9
330
1F
100
AcDbEntity
  8
7
  6
DASHDOT
 62
     4
370
     9
100
AcDbLine
 10
292.4325214525782
 20
437.4724128012188
 30
0.0
 11
396.4325214525782
 21
437.4724128012188
 31
0.0
  0
LINE
  5
4CA
330
1F
100
AcDbEntity
  8
7
  6
DASHDOT
 62
     4
370
     9
100
AcDbLine
 10
408.4325214525782
 20
437.4724128012188
 30
0.0
 11
474.9325214525782
 21
437.4724128012188
 31
0.0
  0
LINE
  5
4CB
330
1F
100
AcDbEntity
  8
7
  6
DASHDOT
 62
     4
370
     9
100
AcDbLine
 10
441.6825214525782
 20
385.4724128012188
 30
0.0
 11
441.6825214525782
 21
470.7224128012188
 31
0.0
  0
LINE
  5
4CC
330
1F
100
AcDbEntity
  8
7
  6
DASHDOT
 62
     4
370
     9
100
AcDbLine
 10
344.4325214525782
 20
371.9724128012188
 30
0.0
 11
344.4325214525782
 21
306.9724128012188
 31
0.0
  0
LINE
  5
4CD
330
1F
100
AcDbEntity
  8
7
  6
DASHDOT
 62
     4
370
     9
100
AcDbLine
 10
292.4325214525782
 20
340.2224128012188
 30
0.0
 11
396.4325214525782
 21
340.2224128012188
 31
0.0
  0
LINE
  5
4CE
330
1F
100
AcDbEntity
  8
7
  6
DASHDOT
 62
     4
370
     9
100
AcDbLine
 10
566.9325214525782
 20
472.7224128012188
 30
0.0
 11
688.9325214525782
 21
472.7224128012188
 31
0.0
  0
LINE
  5
4CF
330
1F
100
AcDbEntity
  8
7
  6
DASHDOT
 62
     4
370
     9
100
AcDbLine
 10
627.9325214525782
 20
510.6724128012189
 30
0.0
 11
627.9325214525782
 21
411.7224128012188
 31
0.0
  0
LINE
  5
4D0
330
1F
100
AcDbEntity
  8
7
  6
DASHDOT
 62
     4
370
     9
100
AcDbLine
 10
740.4325214525782
 20
512.2224128012188
 30
0.0
 11
740.4325214525782
 21
411.7224128012186
 31
0.0
  0
LINE
  5
4D1
330
1F
100
AcDbEntity
  8
7
  6
DASHDOT
 62
     4
370
     9
100
AcDbLine
 10
700.9325214525782
 20
472.7224128012188
 30
0.0
 11
779.9325214525782
 21
472.7224128012188
 31
0.0
  0
LINE
  5
4D2
330
1F
100
AcDbEntity
  8
7
  6
DASHDOT
 62
     4
370
     9
100
AcDbLine
 10
627.9325214525782
 20
398.1724128012188
 30
0.0
 11
627.9325214525782
 21
320.7224128012188
 31
0.0
  0
LINE
  5
4D3
330
1F
100
AcDbEntity
  8
7
  6
DASHDOT
 62
     4
370
     9
100
AcDbLine
 10
566.9325214525782
 20
360.2224128012188
 30
0.0
 11
688.9325214525782
 21
360.2224128012188
 31
0.0
  0
LINE
  5
4D4
330
1F
100
AcDbEntity
  8
7
  6
DASHDOT
 62
     4
370
     9
100
AcDbLine
 10
944.9325214525782
 20
543.2724128012187
 30
0.0
 11
944.9325214525782
 21
423.6224128012188
 31
0.0
  0
LINE
  5
4D5
330
1F
100
AcDbEntity
  8
7
  6
DASHDOT
 62
     4
370
     9
100
AcDbLine
 10
871.9325214525782
 20
496.6224128012188
 30
0.0
 11
1017.932521452578
 21
496.6224128012188
 31
0.0
  0
LINE
  5
4D6
330
1F
100
AcDbEntity
  8
7
  6
DASHDOT
 62
     4
370
     9
100
AcDbLine
 10
1088.082521452578
 20
544.7724128012187
 30
0.0
 11
1088.082521452578
 21
423.6224128012188
 31
0.0
  0
LINE
  5
4D7
330
1F
100
AcDbEntity
  8
7
  6
DASHDOT
 62
     4
370
     9
100
AcDbLine
 10
1039.932521452578
 20
496.6224128012188
 30
0.0
 11
1136.232521452578
 21
496.6224128012188
 31
0.0
  0
LINE
  5
4D8
330
1F
100
AcDbEntity
  8
7
  6
DASHDOT
 62
     4
370
     9
100
AcDbLine
 10
871.9325214525782
 20
353.3724128012188
 30
0.0
 11
1017.932521452578
 21
353.3724128012188
 31
0.0
  0
LINE
  5
4D9
330
1F
100
AcDbEntity
  8
7
  6
DASHDOT
 62
     4
370
     9
100
AcDbLine
 10
944.9325214525782
 20
401.5224128012189
 30
0.0
 11
944.9325214525782
 21
305.2224128012188
 31
0.0
  0
LINE
  5
4DA
330
1F
100
AcDbEntity
  8
7
  6
DASHDOT
 62
     4
370
     9
100
AcDbLine
 10
135.0270430886349
 20
951.5482115085538
 30
0.0
 11
135.0270430886349
 21
816.0482115085537
 31
0.0
  0
LINE
  5
4DB
330
1F
100
AcDbEntity
  8
7
  6
DASHDOT
 62
     4
370
     9
100
AcDbLine
 10
53.02704308863497
 20
898.0482115085538
 30
0.0
 11
217.0270430886349
 21
898.0482115085538
 31
0.0
  0
LINE
  5
4DC
330
1F
100
AcDbEntity
  8
7
  6
DASHDOT
 62
     4
370
     9
100
AcDbLine
 10
294.0270430886349
 20
953.0482115085538
 30
0.0
 11
294.0270430886349
 21
816.0482115085537
 31
0.0
  0
LINE
  5
4DD
330
1F
100
AcDbEntity
  8
7
  6
DASHDOT
 62
     4
370
     9
100
AcDbLine
 10
239.0270430886349
 20
898.0482115085538
 30
0.0
 11
349.0270430886349
 21
898.0482115085538
 31
0.0
  0
LINE
  5
4DE
330
1F
100
AcDbEntity
  8
7
  6
DASHDOT
 62
     4
370
     9
100
AcDbLine
 10
53.02704308863497
 20
739.0482115085537
 30
0.0
 11
217.0270430886349
 21
739.0482115085537
 31
0.0
  0
LINE
  5
4DF
330
1F
100
AcDbEntity
  8
7
  6
DASHDOT
 62
     4
370
     9
100
AcDbLine
 10
135.0270430886349
 20
792.5482115085537
 30
0.0
 11
135.0270430886349
 21
684.0482115085537
 31
0.0
  0
LINE
  5
4E0
330
1F
100
AcDbEntity
  8
7
  6
DASHDOT
 62
     4
370
     9
100
AcDbLine
 10
666.9325214525782
 20
1011.048211508554
 30
0.0
 11
666.9325214525782
 21
844.0482115085537
 31
0.0
  0
LINE
  5
4E1
330
1F
100
AcDbEntity
  8
7
  6
DASHDOT
 62
     4
370
     9
100
AcDbLine
 10
566.9325214525782
 20
944.0482115085537
 30
0.0
 11
766.9325214525782
 21
944.0482115085537
 31
0.0
  0
LINE
  5
4E2
330
1F
100
AcDbEntity
  8
7
  6
DASHDOT
 62
     4
370
     9
100
AcDbLine
 10
857.9325214525779
 20
1013.048211508554
 30
0.0
 11
857.9325214525779
 21
844.0482115085534
 31
0.0
  0
LINE
  5
4E3
330
1F
100
AcDbEntity
  8
7
  6
DASHDOT
 62
     4
370
     9
100
AcDbLine
 10
788.9325214525779
 20
944.0482115085537
 30
0.0
 11
926.9325214525779
 21
944.0482115085537
 31
0.0
  0
LINE
  5
4E4
330
1F
100
AcDbEntity
  8
7
  6
DASHDOT
 62
     4
370
     9
100
AcDbLine
 10
566.9325214525782
 20
753.0482115085537
 30
0.0
 11
766.9325214525782
 21
753.0482115085537
 31
0.0
  0
LINE
  5
4E5
330
1F
100
AcDbEntity
  8
7
  6
DASHDOT
 62
     4
370
     9
100
AcDbLine
 10
666.9325214525782
 20
820.0482115085538
 30
0.0
 11
666.9325214525782
 21
684.0482115085537
 31
0.0
  0
VIEWPORT
  5
3F
330
1B
100
AcDbEntity
 67
     1
  8
0
100
AcDbViewport
 10
594.5
 20
420.5
 30
0.0
 40
1189.0
 41
841.0
 68
     1
 69
     1
 12
594.5
 22
420.5
 13
0.0
 23
0.0
 14
0.5
 24
0.5
 15
0.5
 25
0.5
 16
0.0
 26
0.0
 36
1.0
 17
0.0
 27
0.0
 37
0.0
 42
50.0
 43
0.0
 44
0.0
 45
9.0
 50
0.0
 51
0.0
 72
   100
 90
   557152
  1

281
     0
 71
     1
 74
     0
110
0.0
120
0.0
130
0.0
111
1.0
121
0.0
131
0.0
112
0.0
122
1.0
132
0.0
 79
     0
146
0.0
170
     0
 61
     5
292
     1
282
     1
141
0.0
142
0.0
 63
   256
  0
ENDSEC
  0
SECTION
  2
OBJECTS
  0
DICTIONARY
  5
C
330
0
100
AcDbDictionary
281
     1
  3
ACAD_GROUP
350
D
  3
ACAD_LAYOUT
350
1A
  3
ACAD_MATERIAL
350
3B
  3
ACAD_MLEADERSTYLE
350
507
  3
ACAD_MLINESTYLE
350
17
  3
ACAD_PLOTSETTINGS
350
19
  3
ACAD_PLOTSTYLENAME
350
E
  3
ACAD_TABLESTYLE
350
506
  3
ACAD_VISUALSTYLE
350
2A
  0
DICTIONARY
  5
D
102
{ACAD_REACTORS
330
C
102
}
330
C
100
AcDbDictionary
281
     1
  0
DICTIONARY
  5
1A
102
{ACAD_REACTORS
330
C
102
}
330
C
100
AcDbDictionary
281
     1
  3
Layout1
350
1E
  3
Layout2
350
26
  3
Model
350
22
  0
DICTIONARY
  5
3B
102
{ACAD_REACTORS
330
C
102
}
330
C
100
AcDbDictionary
281
     1
  3
ByBlock
350
3D
  3
ByLayer
350
3C
  3
Global
350
3E
  0
DICTIONARY
  5
507
102
{ACAD_REACTORS
330
C
102
}
330
C
100
AcDbDictionary
281
     1
  0
DICTIONARY
  5
17
102
{ACAD_REACTORS
330
C
102
}
330
C
100
AcDbDictionary
281
     1
  3
Standard
350
18
  0
DICTIONARY
  5
19
102
{ACAD_REACTORS
330
C
102
}
330
C
100
AcDbDictionary
281
     1
  0
ACDBDICTIONARYWDFLT
  5
E
102
{ACAD_REACTORS
330
C
102
}
330
C
100
AcDbDictionary
281
     1
  3
Normal
350
F
100
AcDbDictionaryWithDefault
340
F
  0
DICTIONARY
  5
506
102
{ACAD_REACTORS
330
C
102
}
330
C
100
AcDbDictionary
281
     1
  0
DICTIONARY
  5
2A
102
{ACAD_REACTORS
330
C
102
}
330
C
100
AcDbDictionary
281
     1
  3
2dWireframe
350
2F
  3
3D Hidden
350
31
  3
3dWireframe
350
30
  3
Basic
350
32
  3
Brighten
350
36
  3
ColorChange
350
3A
  3
Conceptual
350
34
  3
Dim
350
35
  3
Facepattern
350
39
  3
Flat
350
2B
  3
FlatWithEdges
350
2C
  3
Gouraud
350
2D
  3
GouraudWithEdges
350
2E
  3
Linepattern
350
38
  3
Realistic
350
33
  3
Thicken
350
37
  0
LAYOUT
  5
1E
102
{ACAD_REACTORS
330
1A
102
}
330
1A
100
AcDbPlotSettings
  1

  2
none_device
  4

  6

 40
0.0
 41
0.0
 42
0.0
 43
0.0
 44
0.0
 45
0.0
 46
0.0
 47
0.0
 48
0.0
 49
0.0
140
0.0
141
0.0
142
1.0
143
1.0
 70
   688
 72
     0
 73
     0
 74
     5
  7

 75
    16
 76
     0
 77
     2
 78
   300
147
1.0
148
0.0
149
0.0
100
AcDbLayout
  1
Layout1
 70
     1
 71
     1
 10
0.0
 20
0.0
 11
1189.0
 21
841.0
 12
0.0
 22
0.0
 32
0.0
 14
0.0
 24
0.0
 34
0.0
 15
1189.0
 25
841.0
 35
0.0
146
0.0
 13
0.0
 23
0.0
 33
0.0
 16
1.0
 26
0.0
 36
0.0
 17
0.0
 27
1.0
 37
0.0
 76
     0
330
1B
331
3F
  0
LAYOUT
  5
26
102
{ACAD_REACTORS
330
1A
102
}
330
1A
100
AcDbPlotSettings
  1

  2
none_device
  4

  6

 40
0.0
 41
0.0
 42
0.0
 43
0.0
 44
0.0
 45
0.0
 46
0.0
 47
0.0
 48
0.0
 49
0.0
140
0.0
141
0.0
142
1.0
143
1.0
 70
   688
 72
     0
 73
     0
 74
     5
  7

 75
    16
 76
     0
 77
     2
 78
   300
147
1.0
148
0.0
149
0.0
100
AcDbLayout
  1
Layout2
 70
     1
 71
     2
 10
0.0
 20
0.0
 11
0.0
 21
0.0
 12
0.0
 22
0.0
 32
0.0
 14
0.0
 24
0.0
 34
0.0
 15
0.0
 25
0.0
 35
0.0
146
0.0
 13
0.0
 23
0.0
 33
0.0
 16
1.0
 26
0.0
 36
0.0
 17
0.0
 27
1.0
 37
0.0
 76
     0
330
23
  0
LAYOUT
  5
22
102
{ACAD_REACTORS
330
1A
102
}
330
1A
100
AcDbPlotSettings
  1

  2
none_device
  4

  6

 40
0.0
 41
0.0
 42
0.0
 43
0.0
 44
0.0
 45
0.0
 46
0.0
 47
0.0
 48
0.0
 49
0.0
140
0.0
141
0.0
142
1.0
143
1.0
 70
  1712
 72
     0
 73
     0
 74
     0
  7

 75
     0
 76
     0
 77
     2
 78
   300
147
1.0
148
0.0
149
0.0
100
AcDbLayout
  1
Model
 70
     1
 71
     0
 10
0.0
 20
0.0
 11
1189.0
 21
841.0
 12
0.0
 22
0.0
 32
0.0
 14
29.43252145257806
 24
45.86003110419907
 34
0.0
 15
1136.232521452578
 25
1013.048211508554
 35
0.0
146
0.0
 13
0.0
 23
0.0
 33
0.0
 16
1.0
 26
0.0
 36
0.0
 17
0.0
 27
1.0
 37
0.0
 76
     0
330
1F
331
29
  0
MATERIAL
  5
3D
102
{ACAD_REACTORS
330
3B
102
}
330
3B
100
AcDbMaterial
  1
ByBlock
 72
     1
 94
      127
  0
MATERIAL
  5
3C
102
{ACAD_REACTORS
330
3B
102
}
330
3B
100
AcDbMaterial
  1
ByLayer
 72
     1
 94
      127
  0
MATERIAL
  5
3E
102
{ACAD_REACTORS
330
3B
102
}
330
3B
100
AcDbMaterial
  1
Global
 72
     1
 94
      127
  0
MLINESTYLE
  5
18
102
{ACAD_REACTORS
330
17
102
}
330
17
100
AcDbMlineStyle
  2
Standard
 70
     0
  3

 62
   256
 51
90.0
 52
90.0
 71
     2
 49
0.5
 62
   256
  6
BYLAYER
 49
-0.5
 62
   256
  6
BYLAYER
  0
ACDBPLACEHOLDER
  5
F
102
{ACAD_REACTORS
330
E
102
}
330
E
  0
VISUALSTYLE
  5
2F
102
{ACAD_REACTORS
330
2A
102
}
102
{ACAD_XDICTIONARY
360
4EE
102
}
330
2A
100
AcDbVisualStyle
  2
2dWireframe
 70
     4
 71
     0
 72
     2
 73
     0
 90
        0
 40
-0.6
 41
-30.0
 62
     5
 63
     7
421
 16777215
 74
     1
 91
        4
 64
     7
 65
   257
 75
     1
175
     1
 42
1.0
 92
        0
 66
   257
 43
1.0
 76
     1
 77
     6
 78
     2
 67
     7
 79
     5
170
     0
171
     0
290
     0
174
     0
 93
        1
 44
0.0
173
     0
291
     0
 45
0.0
  0
VISUALSTYLE
  5
31
102
{ACAD_REACTORS
330
2A
102
}
102
{ACAD_XDICTIONARY
360
4F2
102
}
330
2A
100
AcDbVisualStyle
  2
3D Hidden
 70
     6
 71
     1
 72
     2
 73
     2
 90
        0
 40
-0.6
 41
-30.0
 62
     5
 63
     7
421
 16777215
 74
     2
 91
        2
 64
     7
 65
   257
 75
     2
175
     1
 42
40.0
 92
        0
 66
   257
 43
1.0
 76
     1
 77
     6
 78
     2
 67
     7
 79
     3
170
     0
171
     0
290
     0
174
     0
 93
        1
 44
0.0
173
     0
291
     0
 45
0.0
  0
VISUALSTYLE
  5
30
102
{ACAD_REACTORS
330
2A
102
}
102
{ACAD_XDICTIONARY
360
4F0
102
}
330
2A
100
AcDbVisualStyle
  2
3dWireframe
 70
     5
 71
     0
 72
     2
 73
     0
 90
        0
 40
-0.6
 41
-30.0
 62
     5
 63
     7
421
 16777215
 74
     1
 91
        4
 64
     7
 65
   257
 75
     1
175
     1
 42
1.0
 92
        0
 66
   257
 43
1.0
 76
     1
 77
     6
 78
     2
 67
     7
 79
     5
170
     0
171
     0
290
     0
174
     0
 93
        1
 44
0.0
173
     0
291
     0
 45
0.0
  0
VISUALSTYLE
  5
32
102
{ACAD_REACTORS
330
2A
102
}
102
{ACAD_XDICTIONARY
360
4F4
102
}
330
2A
100
AcDbVisualStyle
  2
Basic
 70
     7
 71
     1
 72
     0
 73
     1
 90
        0
 40
-0.6
 41
-30.0
 62
     5
 63
     7
421
 16777215
 74
     0
 91
        4
 64
     7
 65
   257
 75
     1
175
     1
 42
1.0
 92
        8
 66
     7
 43
1.0
 76
     1
 77
     6
 78
     2
 67
     7
 79
     5
170
     0
171
     0
290
     0
174
     0
 93
        1
 44
0.0
173
     0
291
     1
 45
0.0
  0
VISUALSTYLE
  5
36
102
{ACAD_REACTORS
330
2A
102
}
102
{ACAD_XDICTIONARY
360
4FC
102
}
330
2A
100
AcDbVisualStyle
  2
Brighten
 70
    12
 71
     2
 72
     2
 73
     0
 90
        0
 40
-0.6
 41
-30.0
 62
     5
 63
     7
421
 16777215
 74
     1
 91
        4
 64
     7
 65
   257
 75
     1
175
     1
 42
1.0
 92
        8
 66
     7
 43
1.0
 76
     1
 77
     6
 78
     2
 67
     7
 79
     5
170
     0
171
     0
290
     0
174
     0
 93
        1
 44
50.0
173
     0
291
     1
 45
0.0
  0
VISUALSTYLE
  5
3A
102
{ACAD_REACTORS
330
2A
102
}
102
{ACAD_XDICTIONARY
360
504
102
}
330
2A
100
AcDbVisualStyle
  2
ColorChange
 70
    16
 71
     2
 72
     2
 73
     3
 90
        0
 40
-0.6
 41
-30.0
 62
     5
 63
     8
421
  8421504
 74
     1
 91
        4
 64
     7
 65
   257
 75
     1
175
     1
 42
1.0
 92
        8
 66
     8
424
  8421504
 43
1.0
 76
     1
 77
     6
 78
     2
 67
     7
 79
     5
170
     0
171
     0
290
     0
174
     0
 93
        1
 44
0.0
173
     0
291
     1
 45
0.0
  0
VISUALSTYLE
  5
34
102
{ACAD_REACTORS
330
2A
102
}
102
{ACAD_XDICTIONARY
360
4F8
102
}
330
2A
100
AcDbVisualStyle
  2
Conceptual
 70
     9
 71
     3
 72
     2
 73
     0
 90
        0
 40
-0.6
 41
-30.0
 62
     5
 63
     7
421
 16777215
 74
     2
 91
        2
 64
     7
 65
   257
 75
     1
175
     1
 42
40.0
 92
        8
 66
     7
 43
1.0
 76
     1
 77
     6
 78
     2
 67
     7
 79
     3
170
     0
171
     0
290
     0
174
     0
 93
        1
 44
0.0
173
     0
291
     0
 45
0.0
  0
VISUALSTYLE
  5
35
102
{ACAD_REACTORS
330
2A
102
}
102
{ACAD_XDICTIONARY
360
4FA
102
}
330
2A
100
AcDbVisualStyle
  2
Dim
 70
    11
 71
     2
 72
     2
 73
     0
 90
        0
 40
-0.6
 41
-30.0
 62
     5
 63
     7
421
 16777215
 74
     1
 91
        4
 64
     7
 65
   257
 75
     1
175
     1
 42
1.0
 92
        8
 66
     7
 43
1.0
 76
     1
 77
     6
 78
     2
 67
     7
 79
     5
170
     0
171
     0
290
     0
174
     0
 93
        1
 44
-50.0
173
     0
291
     1
 45
0.0
  0
VISUALSTYLE
  5
39
102
{ACAD_REACTORS
330
2A
102
}
102
{ACAD_XDICTIONARY
360
502
102
}
330
2A
100
AcDbVisualStyle
  2
Facepattern
 70
    15
 71
     2
 72
     2
 73
     0
 90
        0
 40
-0.6
 41
-30.0
 62
     5
 63
     7
421
 16777215
 74
     1
 91
        4
 64
     7
 65
   257
 75
     1
175
     1
 42
1.0
 92
        8
 66
     7
 43
1.0
 76
     1
 77
     6
 78
     2
 67
     7
 79
     5
170
     0
171
     0
290
     0
174
     0
 93
        1
 44
0.0
173
     0
291
     1
 45
0.0
  0
VISUALSTYLE
  5
2B
102
{ACAD_REACTORS
330
2A
102
}
102
{ACAD_XDICTIONARY
360
4E6
102
}
330
2A
100
AcDbVisualStyle
  2
Flat
 70
     0
 71
     2
 72
     1
 73
     1
 90
        2
 40
-0.6
 41
30.0
 62
     5
 63
     7
421
 16777215
 74
     0
 91
        4
 64
     7
 65
   257
 75
     1
175
     1
 42
1.0
 92
        8
 66
     7
 43
1.0
 76
     1
 77
     6
 78
     2
 67
     7
 79
     5
170
     0
171
     0
290
     0
174
     0
 93
       13
 44
0.0
173
     0
291
     1
 45
0.0
  0
VISUALSTYLE
  5
2C
102
{ACAD_REACTORS
330
2A
102
}
102
{ACAD_XDICTIONARY
360
4E8
102
}
330
2A
100
AcDbVisualStyle
  2
FlatWithEdges
 70
     1
 71
     2
 72
     1
 73
     1
 90
        2
 40
-0.6
 41
30.0
 62
     5
 63
     7
421
 16777215
 74
     1
 91
        4
 64
     7
 65
   257
 75
     1
175
     1
 42
1.0
 92
        0
 66
   257
 43
1.0
 76
     1
 77
     6
 78
     2
 67
     7
 79
     5
170
     0
171
     0
290
     0
174
     0
 93
       13
 44
0.0
173
     0
291
     1
 45
0.0
  0
VISUALSTYLE
  5
2D
102
{ACAD_REACTORS
330
2A
102
}
102
{ACAD_XDICTIONARY
360
4EA
102
}
330
2A
100
AcDbVisualStyle
  2
Gouraud
 70
     2
 71
     2
 72
     2
 73
     1
 90
        2
 40
-0.6
 41
30.0
 62
     5
 63
     7
421
 16777215
 74
     0
 91
        4
 64
     7
 65
   257
 75
     1
175
     1
 42
1.0
 92
        0
 66
     7
 43
1.0
 76
     1
 77
     6
 78
     2
 67
     7
 79
     5
170
     0
171
     0
290
     0
174
     0
 93
       13
 44
0.0
173
     0
291
     1
 45
0.0
  0
VISUALSTYLE
  5
2E
102
{ACAD_REACTORS
330
2A
102
}
102
{ACAD_XDICTIONARY
360
4EC
102
}
330
2A
100
AcDbVisualStyle
  2
GouraudWithEdges
 70
     3
 71
     2
 72
     2
 73
     1
 90
        2
 40
-0.6
 41
30.0
 62
     5
 63
     7
421
 16777215
 74
     1
 91
        4
 64
     7
 65
   257
 75
     1
175
     1
 42
1.0
 92
        0
 66
   257
 43
1.0
 76
     1
 77
     6
 78
     2
 67
     7
 79
     5
170
     0
171
     0
290
     0
174
     0
 93
       13
 44
0.0
173
     0
291
     1
 45
0.0
  0
VISUALSTYLE
  5
38
102
{ACAD_REACTORS
330
2A
102
}
102
{ACAD_XDICTIONARY
360
500
102
}
330
2A
100
AcDbVisualStyle
  2
Linepattern
 70
    14
 71
     2
 72
     2
 73
     0
 90
        0
 40
-0.6
 41
-30.0
 62
     5
 63
     7
421
 16777215
 74
     1
 91
        4
 64
     7
 65
   257
 75
     7
175
     7
 42
1.0
 92
        8
 66
     7
 43
1.0
 76
     1
 77
     6
 78
     2
 67
     7
 79
     5
170
     0
171
     0
290
     0
174
     0
 93
        1
 44
0.0
173
     0
291
     1
 45
0.0
  0
VISUALSTYLE
  5
33
102
{ACAD_REACTORS
330
2A
102
}
102
{ACAD_XDICTIONARY
360
4F6
102
}
330
2A
100
AcDbVisualStyle
  2
Realistic
 70
     8
 71
     2
 72
     2
 73
     0
 90
        0
 40
-0.6
 41
-30.0
 62
     5
 63
     7
421
 16777215
 74
     1
 91
        0
 64
     7
 65
   257
 75
     1
175
     1
 42
1.0
 92
        8
 66
     8
424
  7895160
 43
1.0
 76
     1
 77
     6
 78
     2
 67
     7
 79
     5
170
     0
171
     0
290
     0
174
     0
 93
       13
 44
0.0
173
     0
291
     0
 45
0.0
  0
VISUALSTYLE
  5
37
102
{ACAD_REACTORS
330
2A
102
}
102
{ACAD_XDICTIONARY
360
4FE
102
}
330
2A
100
AcDbVisualStyle
  2
Thicken
 70
    13
 71
     2
 72
     2
 73
     0
 90
        0
 40
-0.6
 41
-30.0
 62
     5
 63
     7
421
 16777215
 74
     1
 91
        4
 64
     7
 65
   257
 75
     1
175
     1
 42
1.0
 92
       12
 66
     7
 43
1.0
 76
     1
 77
     6
 78
     2
 67
     7
 79
     5
170
     0
171
     0
290
     0
174
     0
 93
        1
 44
0.0
173
     0
291
     1
 45
0.0
  0
DICTIONARY
  5
4EE
330
2F
100
AcDbDictionary
280
     1
281
     1
  3
ACAD_XREC_ROUNDTRIP
360
4EF
  0
DICTIONARY
  5
4F2
330
31
100
AcDbDictionary
280
     1
281
     1
  3
ACAD_XREC_ROUNDTRIP
360
4F3
  0
DICTIONARY
  5
4F0
330
30
100
AcDbDictionary
280
     1
281
     1
  3
ACAD_XREC_ROUNDTRIP
360
4F1
  0
DICTIONARY
  5
4F4
330
32
100
AcDbDictionary
280
     1
281
     1
  3
ACAD_XREC_ROUNDTRIP
360
4F5
  0
DICTIONARY
  5
4FC
330
36
100
AcDbDictionary
280
     1
281
     1
  3
ACAD_XREC_ROUNDTRIP
360
4FD
  0
DICTIONARY
  5
504
330
3A
100
AcDbDictionary
280
     1
281
     1
  3
ACAD_XREC_ROUNDTRIP
360
505
  0
DICTIONARY
  5
4F8
330
34
100
AcDbDictionary
280
     1
281
     1
  3
ACAD_XREC_ROUNDTRIP
360
4F9
  0
DICTIONARY
  5
4FA
330
35
100
AcDbDictionary
280
     1
281
     1
  3
ACAD_XREC_ROUNDTRIP
360
4FB
  0
DICTIONARY
  5
502
330
39
100
AcDbDictionary
280
     1
281
     1
  3
ACAD_XREC_ROUNDTRIP
360
503
  0
DICTIONARY
  5
4E6
330
2B
100
AcDbDictionary
280
     1
281
     1
  3
ACAD_XREC_ROUNDTRIP
360
4E7
  0
DICTIONARY
  5
4E8
330
2C
100
AcDbDictionary
280
     1
281
     1
  3
ACAD_XREC_ROUNDTRIP
360
4E9
  0
DICTIONARY
  5
4EA
330
2D
100
AcDbDictionary
280
     1
281
     1
  3
ACAD_XREC_ROUNDTRIP
360
4EB
  0
DICTIONARY
  5
4EC
330
2E
100
AcDbDictionary
280
     1
281
     1
  3
ACAD_XREC_ROUNDTRIP
360
4ED
  0
DICTIONARY
  5
500
330
38
100
AcDbDictionary
280
     1
281
     1
  3
ACAD_XREC_ROUNDTRIP
360
501
  0
DICTIONARY
  5
4F6
330
33
100
AcDbDictionary
280
     1
281
     1
  3
ACAD_XREC_ROUNDTRIP
360
4F7
  0
DICTIONARY
  5
4FE
330
37
100
AcDbDictionary
280
     1
281
     1
  3
ACAD_XREC_ROUNDTRIP
360
4FF
  0
XRECORD
  5
4EF
102
{ACAD_REACTORS
330
4EE
102
}
330
4EE
100
AcDbXrecord
280
     1
102
RTVSPropertyOp0
 70
     1
102
RTVSPropertyOp1
 70
     1
102
RTVSPropertyOp2
 70
     1
102
RTVSPropertyOp3
 70
     1
102
RTVSPropertyOp4
 70
     1
102
RTVSPropertyOp5
 70
     1
102
RTVSPropertyOp6
 70
     1
102
RTVSPropertyOp7
 70
     1
102
RTVSPropertyOp8
 70
     1
102
RTVSPropertyOp9
 70
     1
102
RTVSPropertyOp10
 70
     1
102
RTVSPropertyOp11
 70
     1
102
RTVSPropertyOp12
 70
     1
102
RTVSPropertyOp13
 70
     1
102
RTVSPropertyOp14
 70
     1
102
RTVSPropertyOp15
 70
     1
102
RTVSPropertyOp16
 70
     1
102
RTVSPropertyOp17
 70
     1
102
RTVSPropertyOp18
 70
     1
102
RTVSPropertyOp19
 70
     1
102
RTVSPropertyOp20
 70
     1
102
RTVSPropertyOp21
 70
     1
102
RTVSPropertyOp22
 70
     1
102
RTVSPropertyOp23
 70
     1
102
RTVSPropertyOp24
 70
     1
102
RTVSPropertyOp25
 70
     1
102
RTVSPropertyOp26
 70
     1
102
RTVSPropertyOp27
 70
     1
102
RTVSPropertyOp28
 70
     1
102
RTVSPropertyOp29
 70
     1
102
RTVSPropertyOp30
 70
     1
102
RTVSPropertyOp31
 70
     1
102
RTVSPropertyOp32
 70
     1
  0
XRECORD
  5
4F3
102
{ACAD_REACTORS
330
4F2
102
}
330
4F2
100
AcDbXrecord
280
     1
102
RTVSPropertyOp0
 70
     1
102
RTVSPropertyOp1
 70
     1
102
RTVSPropertyOp2
 70
     1
102
RTVSPropertyOp3
 70
     1
102
RTVSPropertyOp4
 70
     1
102
RTVSPropertyOp5
 70
     1
102
RTVSPropertyOp6
 70
     1
102
RTVSPropertyOp7
 70
     1
102
RTVSPropertyOp8
 70
     1
102
RTVSPropertyOp9
 70
     1
102
RTVSPropertyOp10
 70
     1
102
RTVSPropertyOp11
 70
     1
102
RTVSPropertyOp12
 70
     1
102
RTVSPropertyOp13
 70
     1
102
RTVSPropertyOp14
 70
     1
102
RTVSPropertyOp15
 70
     1
102
RTVSPropertyOp16
 70
     1
102
RTVSPropertyOp17
 70
     1
102
RTVSPropertyOp18
 70
     1
102
RTVSPropertyOp19
 70
     1
102
RTVSPropertyOp20
 70
     1
102
RTVSPropertyOp21
 70
     1
102
RTVSPropertyOp22
 70
     1
102
RTVSPropertyOp23
 70
     1
102
RTVSPropertyOp24
 70
     1
102
RTVSPropertyOp25
 70
     1
102
RTVSPropertyOp26
 70
     1
102
RTVSPropertyOp27
 70
     1
102
RTVSPropertyOp28
 70
     1
102
RTVSPropertyOp29
 70
     1
102
RTVSPropertyOp30
 70
     1
102
RTVSPropertyOp31
 70
     1
102
RTVSPropertyOp32
 70
     1
  0
XRECORD
  5
4F1
102
{ACAD_REACTORS
330
4F0
102
}
330
4F0
100
AcDbXrecord
280
     1
102
RTVSPropertyOp0
 70
     1
102
RTVSPropertyOp1
 70
     1
102
RTVSPropertyOp2
 70
     1
102
RTVSPropertyOp3
 70
     1
102
RTVSPropertyOp4
 70
     1
102
RTVSPropertyOp5
 70
     1
102
RTVSPropertyOp6
 70
     1
102
RTVSPropertyOp7
 70
     1
102
RTVSPropertyOp8
 70
     1
102
RTVSPropertyOp9
 70
     1
102
RTVSPropertyOp10
 70
     1
102
RTVSPropertyOp11
 70
     1
102
RTVSPropertyOp12
 70
     1
102
RTVSPropertyOp13
 70
     1
102
RTVSPropertyOp14
 70
     1
102
RTVSPropertyOp15
 70
     1
102
RTVSPropertyOp16
 70
     1
102
RTVSPropertyOp17
 70
     1
102
RTVSPropertyOp18
 70
     1
102
RTVSPropertyOp19
 70
     1
102
RTVSPropertyOp20
 70
     1
102
RTVSPropertyOp21
 70
     1
102
RTVSPropertyOp22
 70
     1
102
RTVSPropertyOp23
 70
     1
102
RTVSPropertyOp24
 70
     1
102
RTVSPropertyOp25
 70
     1
102
RTVSPropertyOp26
 70
     1
102
RTVSPropertyOp27
 70
     1
102
RTVSPropertyOp28
 70
     1
102
RTVSPropertyOp29
 70
     1
102
RTVSPropertyOp30
 70
     1
102
RTVSPropertyOp31
 70
     1
102
RTVSPropertyOp32
 70
     1
  0
XRECORD
  5
4F5
102
{ACAD_REACTORS
330
4F4
102
}
330
4F4
100
AcDbXrecord
280
     1
102
RTVSPropertyOp0
 70
     1
102
RTVSPropertyOp1
 70
     1
102
RTVSPropertyOp2
 70
     1
102
RTVSPropertyOp3
 70
     1
102
RTVSPropertyOp4
 70
     1
102
RTVSPropertyOp5
 70
     1
102
RTVSPropertyOp6
 70
     1
102
RTVSPropertyOp7
 70
     1
102
RTVSPropertyOp8
 70
     1
102
RTVSPropertyOp9
 70
     1
102
RTVSPropertyOp10
 70
     1
102
RTVSPropertyOp11
 70
     1
102
RTVSPropertyOp12
 70
     1
102
RTVSPropertyOp13
 70
     1
102
RTVSPropertyOp14
 70
     1
102
RTVSPropertyOp15
 70
     1
102
RTVSPropertyOp16
 70
     1
102
RTVSPropertyOp17
 70
     1
102
RTVSPropertyOp18
 70
     1
102
RTVSPropertyOp19
 70
     1
102
RTVSPropertyOp20
 70
     1
102
RTVSPropertyOp21
 70
     1
102
RTVSPropertyOp22
 70
     1
102
RTVSPropertyOp23
 70
     1
102
RTVSPropertyOp24
 70
     1
102
RTVSPropertyOp25
 70
     1
102
RTVSPropertyOp26
 70
     1
102
RTVSPropertyOp27
 70
     1
102
RTVSPropertyOp28
 70
     1
102
RTVSPropertyOp29
 70
     1
102
RTVSPropertyOp30
 70
     1
102
RTVSPropertyOp31
 70
     1
102
RTVSPropertyOp32
 70
     1
  0
XRECORD
  5
4FD
102
{ACAD_REACTORS
330
4FC
102
}
330
4FC
100
AcDbXrecord
280
     1
102
RTVSPropertyOp0
 70
     1
102
RTVSPropertyOp1
 70
     1
102
RTVSPropertyOp2
 70
     1
102
RTVSPropertyOp3
 70
     1
102
RTVSPropertyOp4
 70
     1
102
RTVSPropertyOp5
 70
     1
102
RTVSPropertyOp6
 70
     1
102
RTVSPropertyOp7
 70
     1
102
RTVSPropertyOp8
 70
     1
102
RTVSPropertyOp9
 70
     1
102
RTVSPropertyOp10
 70
     1
102
RTVSPropertyOp11
 70
     1
102
RTVSPropertyOp12
 70
     1
102
RTVSPropertyOp13
 70
     1
102
RTVSPropertyOp14
 70
     1
102
RTVSPropertyOp15
 70
     1
102
RTVSPropertyOp16
 70
     1
102
RTVSPropertyOp17
 70
     1
102
RTVSPropertyOp18
 70
     1
102
RTVSPropertyOp19
 70
     1
102
RTVSPropertyOp20
 70
     1
102
RTVSPropertyOp21
 70
     1
102
RTVSPropertyOp22
 70
     1
102
RTVSPropertyOp23
 70
     1
102
RTVSPropertyOp24
 70
     1
102
RTVSPropertyOp25
 70
     1
102
RTVSPropertyOp26
 70
     1
102
RTVSPropertyOp27
 70
     1
102
RTVSPropertyOp28
 70
     1
102
RTVSPropertyOp29
 70
     1
102
RTVSPropertyOp30
 70
     1
102
RTVSPropertyOp31
 70
     1
102
RTVSPropertyOp32
 70
     1
  0
XRECORD
  5
505
102
{ACAD_REACTORS
330
504
102
}
330
504
100
AcDbXrecord
280
     1
102
RTVSPropertyOp0
 70
     1
102
RTVSPropertyOp1
 70
     1
102
RTVSPropertyOp2
 70
     1
102
RTVSPropertyOp3
 70
     1
102
RTVSPropertyOp4
 70
     1
102
RTVSPropertyOp5
 70
     1
102
RTVSPropertyOp6
 70
     1
102
RTVSPropertyOp7
 70
     1
102
RTVSPropertyOp8
 70
     1
102
RTVSPropertyOp9
 70
     1
102
RTVSPropertyOp10
 70
     1
102
RTVSPropertyOp11
 70
     1
102
RTVSPropertyOp12
 70
     1
102
RTVSPropertyOp13
 70
     1
102
RTVSPropertyOp14
 70
     1
102
RTVSPropertyOp15
 70
     1
102
RTVSPropertyOp16
 70
     1
102
RTVSPropertyOp17
 70
     1
102
RTVSPropertyOp18
 70
     1
102
RTVSPropertyOp19
 70
     1
102
RTVSPropertyOp20
 70
     1
102
RTVSPropertyOp21
 70
     1
102
RTVSPropertyOp22
 70
     1
102
RTVSPropertyOp23
 70
     1
102
RTVSPropertyOp24
 70
     1
102
RTVSPropertyOp25
 70
     1
102
RTVSPropertyOp26
 70
     1
102
RTVSPropertyOp27
 70
     1
102
RTVSPropertyOp28
 70
     1
102
RTVSPropertyOp29
 70
     1
102
RTVSPropertyOp30
 70
     1
102
RTVSPropertyOp31
 70
     1
102
RTVSPropertyOp32
 70
     1
  0
XRECORD
  5
4F9
102
{ACAD_REACTORS
330
4F8
102
}
330
4F8
100
AcDbXrecord
280
     1
102
RTVSPropertyOp0
 70
     1
102
RTVSPropertyOp1
 70
     1
102
RTVSPropertyOp2
 70
     1
102
RTVSPropertyOp3
 70
     1
102
RTVSPropertyOp4
 70
     1
102
RTVSPropertyOp5
 70
     1
102
RTVSPropertyOp6
 70
     1
102
RTVSPropertyOp7
 70
     1
102
RTVSPropertyOp8
 70
     1
102
RTVSPropertyOp9
 70
     1
102
RTVSPropertyOp10
 70
     1
102
RTVSPropertyOp11
 70
     1
102
RTVSPropertyOp12
 70
     1
102
RTVSPropertyOp13
 70
     1
102
RTVSPropertyOp14
 70
     1
102
RTVSPropertyOp15
 70
     1
102
RTVSPropertyOp16
 70
     1
102
RTVSPropertyOp17
 70
     1
102
RTVSPropertyOp18
 70
     1
102
RTVSPropertyOp19
 70
     1
102
RTVSPropertyOp20
 70
     1
102
RTVSPropertyOp21
 70
     1
102
RTVSPropertyOp22
 70
     1
102
RTVSPropertyOp23
 70
     1
102
RTVSPropertyOp24
 70
     1
102
RTVSPropertyOp25
 70
     1
102
RTVSPropertyOp26
 70
     1
102
RTVSPropertyOp27
 70
     1
102
RTVSPropertyOp28
 70
     1
102
RTVSPropertyOp29
 70
     1
102
RTVSPropertyOp30
 70
     1
102
RTVSPropertyOp31
 70
     1
102
RTVSPropertyOp32
 70
     1
  0
XRECORD
  5
4FB
102
{ACAD_REACTORS
330
4FA
102
}
330
4FA
100
AcDbXrecord
280
     1
102
RTVSPropertyOp0
 70
     1
102
RTVSPropertyOp1
 70
     1
102
RTVSPropertyOp2
 70
     1
102
RTVSPropertyOp3
 70
     1
102
RTVSPropertyOp4
 70
     1
102
RTVSPropertyOp5
 70
     1
102
RTVSPropertyOp6
 70
     1
102
RTVSPropertyOp7
 70
     1
102
RTVSPropertyOp8
 70
     1
102
RTVSPropertyOp9
 70
     1
102
RTVSPropertyOp10
 70
     1
102
RTVSPropertyOp11
 70
     1
102
RTVSPropertyOp12
 70
     1
102
RTVSPropertyOp13
 70
     1
102
RTVSPropertyOp14
 70
     1
102
RTVSPropertyOp15
 70
     1
102
RTVSPropertyOp16
 70
     1
102
RTVSPropertyOp17
 70
     1
102
RTVSPropertyOp18
 70
     1
102
RTVSPropertyOp19
 70
     1
102
RTVSPropertyOp20
 70
     1
102
RTVSPropertyOp21
 70
     1
102
RTVSPropertyOp22
 70
     1
102
RTVSPropertyOp23
 70
     1
102
RTVSPropertyOp24
 70
     1
102
RTVSPropertyOp25
 70
     1
102
RTVSPropertyOp26
 70
     1
102
RTVSPropertyOp27
 70
     1
102
RTVSPropertyOp28
 70
     1
102
RTVSPropertyOp29
 70
     1
102
RTVSPropertyOp30
 70
     1
102
RTVSPropertyOp31
 70
     1
102
RTVSPropertyOp32
 70
     1
  0
XRECORD
  5
503
102
{ACAD_REACTORS
330
502
102
}
330
502
100
AcDbXrecord
280
     1
102
RTVSPropertyOp0
 70
     1
102
RTVSPropertyOp1
 70
     1
102
RTVSPropertyOp2
 70
     1
102
RTVSPropertyOp3
 70
     1
102
RTVSPropertyOp4
 70
     1
102
RTVSPropertyOp5
 70
     1
102
RTVSPropertyOp6
 70
     1
102
RTVSPropertyOp7
 70
     1
102
RTVSPropertyOp8
 70
     1
102
RTVSPropertyOp9
 70
     1
102
RTVSPropertyOp10
 70
     1
102
RTVSPropertyOp11
 70
     1
102
RTVSPropertyOp12
 70
     1
102
RTVSPropertyOp13
 70
     1
102
RTVSPropertyOp14
 70
     1
102
RTVSPropertyOp15
 70
     1
102
RTVSPropertyOp16
 70
     1
102
RTVSPropertyOp17
 70
     1
102
RTVSPropertyOp18
 70
     1
102
RTVSPropertyOp19
 70
     1
102
RTVSPropertyOp20
 70
     1
102
RTVSPropertyOp21
 70
     1
102
RTVSPropertyOp22
 70
     1
102
RTVSPropertyOp23
 70
     1
102
RTVSPropertyOp24
 70
     1
102
RTVSPropertyOp25
 70
     1
102
RTVSPropertyOp26
 70
     1
102
RTVSPropertyOp27
 70
     1
102
RTVSPropertyOp28
 70
     1
102
RTVSPropertyOp29
 70
     1
102
RTVSPropertyOp30
 70
     1
102
RTVSPropertyOp31
 70
     1
102
RTVSPropertyOp32
 70
     1
  0
XRECORD
  5
4E7
102
{ACAD_REACTORS
330
4E6
102
}
330
4E6
100
AcDbXrecord
280
     1
102
RTVSPropertyOp0
 70
     1
102
RTVSPropertyOp1
 70
     1
102
RTVSPropertyOp2
 70
     1
102
RTVSPropertyOp3
 70
     1
102
RTVSPropertyOp4
 70
     1
102
RTVSPropertyOp5
 70
     1
102
RTVSPropertyOp6
 70
     1
102
RTVSPropertyOp7
 70
     1
102
RTVSPropertyOp8
 70
     1
102
RTVSPropertyOp9
 70
     1
102
RTVSPropertyOp10
 70
     1
102
RTVSPropertyOp11
 70
     1
102
RTVSPropertyOp12
 70
     1
102
RTVSPropertyOp13
 70
     1
102
RTVSPropertyOp14
 70
     1
102
RTVSPropertyOp15
 70
     1
102
RTVSPropertyOp16
 70
     1
102
RTVSPropertyOp17
 70
     1
102
RTVSPropertyOp18
 70
     1
102
RTVSPropertyOp19
 70
     1
102
RTVSPropertyOp20
 70
     1
102
RTVSPropertyOp21
 70
     1
102
RTVSPropertyOp22
 70
     1
102
RTVSPropertyOp23
 70
     1
102
RTVSPropertyOp24
 70
     1
102
RTVSPropertyOp25
 70
     1
102
RTVSPropertyOp26
 70
     1
102
RTVSPropertyOp27
 70
     1
102
RTVSPropertyOp28
 70
     1
102
RTVSPropertyOp29
 70
     1
102
RTVSPropertyOp30
 70
     1
102
RTVSPropertyOp31
 70
     1
102
RTVSPropertyOp32
 70
     1
  0
XRECORD
  5
4E9
102
{ACAD_REACTORS
330
4E8
102
}
330
4E8
100
AcDbXrecord
280
     1
102
RTVSPropertyOp0
 70
     1
102
RTVSPropertyOp1
 70
     1
102
RTVSPropertyOp2
 70
     1
102
RTVSPropertyOp3
 70
     1
102
RTVSPropertyOp4
 70
     1
102
RTVSPropertyOp5
 70
     1
102
RTVSPropertyOp6
 70
     1
102
RTVSPropertyOp7
 70
     1
102
RTVSPropertyOp8
 70
     1
102
RTVSPropertyOp9
 70
     1
102
RTVSPropertyOp10
 70
     1
102
RTVSPropertyOp11
 70
     1
102
RTVSPropertyOp12
 70
     1
102
RTVSPropertyOp13
 70
     1
102
RTVSPropertyOp14
 70
     1
102
RTVSPropertyOp15
 70
     1
102
RTVSPropertyOp16
 70
     1
102
RTVSPropertyOp17
 70
     1
102
RTVSPropertyOp18
 70
     1
102
RTVSPropertyOp19
 70
     1
102
RTVSPropertyOp20
 70
     1
102
RTVSPropertyOp21
 70
     1
102
RTVSPropertyOp22
 70
     1
102
RTVSPropertyOp23
 70
     1
102
RTVSPropertyOp24
 70
     1
102
RTVSPropertyOp25
 70
     1
102
RTVSPropertyOp26
 70
     1
102
RTVSPropertyOp27
 70
     1
102
RTVSPropertyOp28
 70
     1
102
RTVSPropertyOp29
 70
     1
102
RTVSPropertyOp30
 70
     1
102
RTVSPropertyOp31
 70
     1
102
RTVSPropertyOp32
 70
     1
  0
XRECORD
  5
4EB
102
{ACAD_REACTORS
330
4EA
102
}
330
4EA
100
AcDbXrecord
280
     1
102
RTVSPropertyOp0
 70
     1
102
RTVSPropertyOp1
 70
     1
102
RTVSPropertyOp2
 70
     1
102
RTVSPropertyOp3
 70
     1
102
RTVSPropertyOp4
 70
     1
102
RTVSPropertyOp5
 70
     1
102
RTVSPropertyOp6
 70
     1
102
RTVSPropertyOp7
 70
     1
102
RTVSPropertyOp8
 70
     1
102
RTVSPropertyOp9
 70
     1
102
RTVSPropertyOp10
 70
     1
102
RTVSPropertyOp11
 70
     1
102
RTVSPropertyOp12
 70
     1
102
RTVSPropertyOp13
 70
     1
102
RTVSPropertyOp14
 70
     1
102
RTVSPropertyOp15
 70
     1
102
RTVSPropertyOp16
 70
     1
102
RTVSPropertyOp17
 70
     1
102
RTVSPropertyOp18
 70
     1
102
RTVSPropertyOp19
 70
     1
102
RTVSPropertyOp20
 70
     1
102
RTVSPropertyOp21
 70
     1
102
RTVSPropertyOp22
 70
     1
102
RTVSPropertyOp23
 70
     1
102
RTVSPropertyOp24
 70
     1
102
RTVSPropertyOp25
 70
     1
102
RTVSPropertyOp26
 70
     1
102
RTVSPropertyOp27
 70
     1
102
RTVSPropertyOp28
 70
     1
102
RTVSPropertyOp29
 70
     1
102
RTVSPropertyOp30
 70
     1
102
RTVSPropertyOp31
 70
     1
102
RTVSPropertyOp32
 70
     1
  0
XRECORD
  5
4ED
102
{ACAD_REACTORS
330
4EC
102
}
330
4EC
100
AcDbXrecord
280
     1
102
RTVSPropertyOp0
 70
     1
102
RTVSPropertyOp1
 70
     1
102
RTVSPropertyOp2
 70
     1
102
RTVSPropertyOp3
 70
     1
102
RTVSPropertyOp4
 70
     1
102
RTVSPropertyOp5
 70
     1
102
RTVSPropertyOp6
 70
     1
102
RTVSPropertyOp7
 70
     1
102
RTVSPropertyOp8
 70
     1
102
RTVSPropertyOp9
 70
     1
102
RTVSPropertyOp10
 70
     1
102
RTVSPropertyOp11
 70
     1
102
RTVSPropertyOp12
 70
     1
102
RTVSPropertyOp13
 70
     1
102
RTVSPropertyOp14
 70
     1
102
RTVSPropertyOp15
 70
     1
102
RTVSPropertyOp16
 70
     1
102
RTVSPropertyOp17
 70
     1
102
RTVSPropertyOp18
 70
     1
102
RTVSPropertyOp19
 70
     1
102
RTVSPropertyOp20
 70
     1
102
RTVSPropertyOp21
 70
     1
102
RTVSPropertyOp22
 70
     1
102
RTVSPropertyOp23
 70
     1
102
RTVSPropertyOp24
 70
     1
102
RTVSPropertyOp25
 70
     1
102
RTVSPropertyOp26
 70
     1
102
RTVSPropertyOp27
 70
     1
102
RTVSPropertyOp28
 70
     1
102
RTVSPropertyOp29
 70
     1
102
RTVSPropertyOp30
 70
     1
102
RTVSPropertyOp31
 70
     1
102
RTVSPropertyOp32
 70
     1
  0
XRECORD
  5
501
102
{ACAD_REACTORS
330
500
102
}
330
500
100
AcDbXrecord
280
     1
102
RTVSPropertyOp0
 70
     1
102
RTVSPropertyOp1
 70
     1
102
RTVSPropertyOp2
 70
     1
102
RTVSPropertyOp3
 70
     1
102
RTVSPropertyOp4
 70
     1
102
RTVSPropertyOp5
 70
     1
102
RTVSPropertyOp6
 70
     1
102
RTVSPropertyOp7
 70
     1
102
RTVSPropertyOp8
 70
     1
102
RTVSPropertyOp9
 70
     1
102
RTVSPropertyOp10
 70
     1
102
RTVSPropertyOp11
 70
     1
102
RTVSPropertyOp12
 70
     1
102
RTVSPropertyOp13
 70
     1
102
RTVSPropertyOp14
 70
     1
102
RTVSPropertyOp15
 70
     1
102
RTVSPropertyOp16
 70
     1
102
RTVSPropertyOp17
 70
     1
102
RTVSPropertyOp18
 70
     1
102
RTVSPropertyOp19
 70
     1
102
RTVSPropertyOp20
 70
     1
102
RTVSPropertyOp21
 70
     1
102
RTVSPropertyOp22
 70
     1
102
RTVSPropertyOp23
 70
     1
102
RTVSPropertyOp24
 70
     1
102
RTVSPropertyOp25
 70
     1
102
RTVSPropertyOp26
 70
     1
102
RTVSPropertyOp27
 70
     1
102
RTVSPropertyOp28
 70
     1
102
RTVSPropertyOp29
 70
     1
102
RTVSPropertyOp30
 70
     1
102
RTVSPropertyOp31
 70
     1
102
RTVSPropertyOp32
 70
     1
  0
XRECORD
  5
4F7
102
{ACAD_REACTORS
330
4F6
102
}
330
4F6
100
AcDbXrecord
280
     1
102
RTVSPropertyOp0
 70
     1
102
RTVSPropertyOp1
 70
     1
102
RTVSPropertyOp2
 70
     1
102
RTVSPropertyOp3
 70
     1
102
RTVSPropertyOp4
 70
     1
102
RTVSPropertyOp5
 70
     1
102
RTVSPropertyOp6
 70
     1
102
RTVSPropertyOp7
 70
     1
102
RTVSPropertyOp8
 70
     1
102
RTVSPropertyOp9
 70
     1
102
RTVSPropertyOp10
 70
     1
102
RTVSPropertyOp11
 70
     1
102
RTVSPropertyOp12
 70
     1
102
RTVSPropertyOp13
 70
     1
102
RTVSPropertyOp14
 70
     1
102
RTVSPropertyOp15
 70
     1
102
RTVSPropertyOp16
 70
     1
102
RTVSPropertyOp17
 70
     1
102
RTVSPropertyOp18
 70
     1
102
RTVSPropertyOp19
 70
     1
102
RTVSPropertyOp20
 70
     1
102
RTVSPropertyOp21
 70
     1
102
RTVSPropertyOp22
 70
     1
102
RTVSPropertyOp23
 70
     1
102
RTVSPropertyOp24
 70
     1
102
RTVSPropertyOp25
 70
     1
102
RTVSPropertyOp26
 70
     1
102
RTVSPropertyOp27
 70
     1
102
RTVSPropertyOp28
 70
     1
102
RTVSPropertyOp29
 70
     1
102
RTVSPropertyOp30
 70
     1
102
RTVSPropertyOp31
 70
     1
102
RTVSPropertyOp32
 70
     1
  0
XRECORD
  5
4FF
102
{ACAD_REACTORS
330
4FE
102
}
330
4FE
100
AcDbXrecord
280
     1
102
RTVSPropertyOp0
 70
     1
102
RTVSPropertyOp1
 70
     1
102
RTVSPropertyOp2
 70
     1
102
RTVSPropertyOp3
 70
     1
102
RTVSPropertyOp4
 70
     1
102
RTVSPropertyOp5
 70
     1
102
RTVSPropertyOp6
 70
     1
102
RTVSPropertyOp7
 70
     1
102
RTVSPropertyOp8
 70
     1
102
RTVSPropertyOp9
 70
     1
102
RTVSPropertyOp10
 70
     1
102
RTVSPropertyOp11
 70
     1
102
RTVSPropertyOp12
 70
     1
102
RTVSPropertyOp13
 70
     1
102
RTVSPropertyOp14
 70
     1
102
RTVSPropertyOp15
 70
     1
102
RTVSPropertyOp16
 70
     1
102
RTVSPropertyOp17
 70
     1
102
RTVSPropertyOp18
 70
     1
102
RTVSPropertyOp19
 70
     1
102
RTVSPropertyOp20
 70
     1
102
RTVSPropertyOp21
 70
     1
102
RTVSPropertyOp22
 70
     1
102
RTVSPropertyOp23
 70
     1
102
RTVSPropertyOp24
 70
     1
102
RTVSPropertyOp25
 70
     1
102
RTVSPropertyOp26
 70
     1
102
RTVSPropertyOp27
 70
     1
102
RTVSPropertyOp28
 70
     1
102
RTVSPropertyOp29
 70
     1
102
RTVSPropertyOp30
 70
     1
102
RTVSPropertyOp31
 70
     1
102
RTVSPropertyOp32
 70
     1
  0
ENDSEC
  0
EOF
